  0
SECTION
  2
HEADER
  9
$ACADVER
  1
AC1015
  9
$ACADMAINTVER
 70
     6
  9
$DWGCODEPAGE
  3
ANSI_1252
  9
$INSBASE
 10
0.0
 20
0.0
 30
0.0
  9
$EXTMIN
 10
-741.829468
 20
-1009.218689
 30
0.0
  9
$EXTMAX
 10
62.170509
 20
-505.203217
 30
0.0
  9
$LIMMIN
 10
0.0
 20
0.0
  9
$LIMMAX
 10
0.0
 20
0.0
  9
$ORTHOMODE
 70
     0
  9
$REGENMODE
 70
     1
  9
$FILLMODE
 70
     1
  9
$QTEXTMODE
 70
     0
  9
$MIRRTEXT
 70
     1
  9
$LTSCALE
 40
1.0
  9
$ATTMODE
 70
     1
  9
$TEXTSIZE
 40
0.2
  9
$TRACEWID
 40
0.05
  9
$TEXTSTYLE
  7
Standard
  9
$CLAYER
  8
0
  9
$CELTYPE
  6
Continuous
  9
$CECOLOR
 62
   256
  9
$CELTSCALE
 40
1.0
  9
$DISPSILH
 70
     0
  9
$DIMSCALE
 40
1.0
  9
$DIMASZ
 40
0.18
  9
$DIMEXO
 40
0.0625
  9
$DIMDLI
 40
0.38
  9
$DIMRND
 40
0.0
  9
$DIMDLE
 40
0.0
  9
$DIMEXE
 40
0.18
  9
$DIMTP
 40
0.0
  9
$DIMTM
 40
0.0
  9
$DIMTXT
 40
0.18
  9
$DIMCEN
 40
0.09
  9
$DIMTSZ
 40
0.0
  9
$DIMTOL
 70
     0
  9
$DIMLIM
 70
     0
  9
$DIMTIH
 70
     1
  9
$DIMTOH
 70
     1
  9
$DIMSE1
 70
     0
  9
$DIMSE2
 70
     0
  9
$DIMTAD
 70
     0
  9
$DIMZIN
 70
     0
  9
$DIMBLK
  1

  9
$DIMASO
 70
     1
  9
$DIMSHO
 70
     1
  9
$DIMPOST
  1

  9
$DIMAPOST
  1

  9
$DIMALT
 70
     0
  9
$DIMALTD
 70
     2
  9
$DIMALTF
 40
25.4
  9
$DIMLFAC
 40
1.0
  9
$DIMTOFL
 70
     0
  9
$DIMTVP
 40
0.0
  9
$DIMTIX
 70
     0
  9
$DIMSOXD
 70
     0
  9
$DIMSAH
 70
     0
  9
$DIMBLK1
  1

  9
$DIMBLK2
  1

  9
$DIMSTYLE
  2
Standard
  9
$DIMCLRD
 70
     0
  9
$DIMCLRE
 70
     0
  9
$DIMCLRT
 70
     0
  9
$DIMTFAC
 40
1.0
  9
$DIMGAP
 40
0.09
  9
$DIMJUST
 70
     0
  9
$DIMSD1
 70
     0
  9
$DIMSD2
 70
     0
  9
$DIMTOLJ
 70
     1
  9
$DIMTZIN
 70
     0
  9
$DIMALTZ
 70
     0
  9
$DIMALTTZ
 70
     0
  9
$DIMUPT
 70
     0
  9
$DIMDEC
 70
     4
  9
$DIMTDEC
 70
     4
  9
$DIMALTU
 70
     2
  9
$DIMALTTD
 70
     2
  9
$DIMTXSTY
  7
Standard
  9
$DIMAUNIT
 70
     0
  9
$DIMADEC
 70
     0
  9
$DIMALTRND
 40
0.0
  9
$DIMAZIN
 70
     0
  9
$DIMDSEP
 70
     0
  9
$DIMATFIT
 70
     3
  9
$DIMFRAC
 70
     0
  9
$DIMLDRBLK
  1

  9
$DIMLUNIT
 70
     2
  9
$DIMLWD
 70
     0
  9
$DIMLWE
 70
     0
  9
$DIMTMOVE
 70
     0
  9
$LUNITS
 70
     2
  9
$LUPREC
 70
     4
  9
$SKETCHINC
 40
0.1
  9
$FILLETRAD
 40
0.0
  9
$AUNITS
 70
     0
  9
$AUPREC
 70
     0
  9
$MENU
  1
acad
  9
$ELEVATION
 40
0.0
  9
$PELEVATION
 40
0.0
  9
$THICKNESS
 40
0.0
  9
$LIMCHECK
 70
     0
  9
$CHAMFERA
 40
0.0
  9
$CHAMFERB
 40
0.0
  9
$CHAMFERC
 40
0.0
  9
$CHAMFERD
 40
0.0
  9
$SKPOLY
 70
     0
  9
$TDCREATE
 40
0.000000000
  9
$TDUCREATE
 40
0.000000000
  9
$TDUPDATE
 40
0.000000000
  9
$TDUUPDATE
 40
0.000000000
  9
$TDINDWG
 40
0.0000000000
  9
$TDUSRTIMER
 40
0.0000000000
  9
$USRTIMER
 70
     1
  9
$ANGBASE
 50
0.0
  9
$ANGDIR
 70
     0
  9
$PDMODE
 70
     2
  9
$PDSIZE
 40
-1.0
  9
$PLINEWID
 40
0.0
  9
$SPLFRAME
 70
     0
  9
$SPLINETYPE
 70
     6
  9
$SPLINESEGS
 70
     8
  9
$HANDSEED
  5
337
  9
$SURFTAB1
 70
     6
  9
$SURFTAB2
 70
     6
  9
$SURFTYPE
 70
     6
  9
$SURFU
 70
     6
  9
$SURFV
 70
     6
  9
$UCSBASE
  2

  9
$UCSNAME
  2

  9
$UCSORG
 10
0.0
 20
0.0
 30
0.0
  9
$UCSXDIR
 10
1.0
 20
0.0
 30
0.0
  9
$UCSYDIR
 10
0.0
 20
1.0
 30
0.0
  9
$UCSORTHOREF
  2

  9
$UCSORTHOVIEW
 70
     0
  9
$UCSORGTOP
 10
0.0
 20
0.0
 30
0.0
  9
$UCSORGBOTTOM
 10
0.0
 20
0.0
 30
0.0
  9
$UCSORGLEFT
 10
0.0
 20
0.0
 30
0.0
  9
$UCSORGRIGHT
 10
0.0
 20
0.0
 30
0.0
  9
$UCSORGFRONT
 10
0.0
 20
0.0
 30
0.0
  9
$UCSORGBACK
 10
0.0
 20
0.0
 30
0.0
  9
$PUCSBASE
  2

  9
$PUCSNAME
  2

  9
$PUCSORG
 10
0.0
 20
0.0
 30
0.0
  9
$PUCSXDIR
 10
1.0
 20
0.0
 30
0.0
  9
$PUCSYDIR
 10
0.0
 20
1.0
 30
0.0
  9
$PUCSORTHOREF
  2

  9
$PUCSORTHOVIEW
 70
     0
  9
$PUCSORGTOP
 10
0.0
 20
0.0
 30
0.0
  9
$PUCSORGBOTTOM
 10
0.0
 20
0.0
 30
0.0
  9
$PUCSORGLEFT
 10
0.0
 20
0.0
 30
0.0
  9
$PUCSORGRIGHT
 10
0.0
 20
0.0
 30
0.0
  9
$PUCSORGFRONT
 10
0.0
 20
0.0
 30
0.0
  9
$PUCSORGBACK
 10
0.0
 20
0.0
 30
0.0
  9
$USERI1
 70
     0
  9
$USERI2
 70
     0
  9
$USERI3
 70
     0
  9
$USERI4
 70
     0
  9
$USERI5
 70
     0
  9
$USERR1
 40
0.0
  9
$USERR2
 40
0.0
  9
$USERR3
 40
0.0
  9
$USERR4
 40
0.0
  9
$USERR5
 40
0.0
  9
$WORLDVIEW
 70
     1
  9
$SHADEDGE
 70
     3
  9
$SHADEDIF
 70
    70
  9
$TILEMODE
 70
     1
  9
$MAXACTVP
 70
    16
  9
$PINSBASE
 10
0.0
 20
0.0
 30
0.0
  9
$PLIMCHECK
 70
     0
  9
$PEXTMIN
 10
1.000000E+20
 20
1.000000E+20
 30
1.000000E+20
  9
$PEXTMAX
 10
-1.000000E+20
 20
-1.000000E+20
 30
-1.000000E+20
  9
$PLIMMIN
 10
0.0
 20
0.0
  9
$PLIMMAX
 10
12.0
 20
9.0
  9
$UNITMODE
 70
     0
  9
$VISRETAIN
 70
     0
  9
$PLINEGEN
 70
     1
  9
$PSLTSCALE
 70
     0
  9
$TREEDEPTH
 70
  3020
  9
$CMLSTYLE
  2
Standard
  9
$CMLJUST
 70
     0
  9
$CMLSCALE
 40
1.0
  9
$PROXYGRAPHICS
 70
     0
  9
$MEASUREMENT
 70
     0
  9
$CELWEIGHT
370
     0
  9
$ENDCAPS
280
     0
  9
$JOINSTYLE
280
     0
  9
$LWDISPLAY
290
     1
  9
$INSUNITS
 70
     0
  9
$HYPERLINKBASE
  1

  9
$STYLESHEET
  1

  9
$XEDIT
290
     1
  9
$CEPSNTYPE
380
     0
  9
$PSTYLEMODE
290
     1
  9
$FINGERPRINTGUID
  2

  9
$VERSIONGUID
  2

  9
$EXTNAMES
290
     1
  9
$PSVPSCALE
 40
0.0
  0
ENDSEC
  0
SECTION
  2
CLASSES
  0
CLASS
  1
LWPOLYLINE
  2
AcDbPolyline
  3
AutoCAD 2000
 90
        0
280
     0
281
     1
  0
CLASS
  1
IMAGE
  2
AcDbRasterImage
  3
ISM
 90
      127
280
     0
281
     1
  0
CLASS
  1
OLE2FRAME
  2
AcDbOle2Frame
  3
AutoCAD 2000
 90
        0
280
     0
281
     1
  0
CLASS
  1
HATCH
  2
AcDbHatch
  3
AutoCAD 2000
 90
        0
280
     0
281
     1
  0
CLASS
  1
DICTIONARYVAR
  2
AcDbDictionaryVar
  3
AutoCAD 2000
 90
        0
280
     0
281
     0
  0
CLASS
  1
RASTERVARIABLES
  2
AcDbRasterVariables
  3
ISM
 90
        0
280
     0
281
     0
  0
CLASS
  1
IMAGEDEF
  2
AcDbRasterImageDef
  3
ISM
 90
        0
280
     0
281
     0
  0
CLASS
  1
IMAGEDEF_REACTOR
  2
AcDbRasterImageDefReactor
  3
ISM
 90
        1
280
     0
281
     0
  0
CLASS
  1
IDBUFFER
  2
AcDbIdBuffer
  3
AutoCAD 2000
 90
        0
280
     0
281
     0
  0
CLASS
  1
SPATIAL_FILTER
  2
AcDbSpatialFilter
  3
AutoCAD 2000
 90
        0
280
     0
281
     0
  0
CLASS
  1
XRECORD
  2
AcDbXrecord
  3
AutoCAD 2000
 90
        0
280
     0
281
     0
  0
CLASS
  1
SORTENTSTABLE
  2
AcDbSortentsTable
  3
AutoCAD 2000
 90
        0
280
     0
281
     0
  0
CLASS
  1
LAYER_INDEX
  2
AcDbLayerIndex
  3
AutoCAD 2000
 90
        0
280
     0
281
     0
  0
CLASS
  1
SPATIAL_INDEX
  2
AcDbSpatialIndex
  3
AutoCAD 2000
 90
        0
280
     0
281
     0
  0
CLASS
  1
OBJECT_PTR
  2
CAseDLPNTableRecord
  3
"ASE-LPNTableRecord"
 90
        1
280
     0
281
     0
  0
CLASS
  1
LAYOUT
  2
AcDbLayout
  3
AutoCAD 2000
 90
        0
280
     0
281
     0
  0
CLASS
  1
PLOTSETTINGS
  2
AcDbPlotSettings
  3
AutoCAD 2000
 90
        0
280
     0
281
     0
  0
CLASS
  1
ACDBDICTIONARYWDFLT
  2
AcDbDictionaryWithDefault
  3
AutoCAD 2000
 90
        0
280
     0
281
     0
  0
CLASS
  1
ACDBPLACEHOLDER
  2
AcDbPlaceHolder
  3
AutoCAD 2000
 90
        0
280
     0
281
     0
  0
CLASS
  1
VBA_PROJECT
  2
AcDbVbaProject
  3
acadvba
 90
        0
280
     0
281
     0
  0
CLASS
  1
WIPEOUT
  2
AcDbWipeout
  3
WipeOut|AutoCAD Express Tool|expresstools@autodesk.com
 90
      127
280
     0
281
     1
  0
CLASS
  1
WIPEOUTVARIABLES
  2
AcDbWipeoutVariables
  3
WipeOut|AutoCAD Express Tool|expresstools@autodesk.com
 90
        0
280
     0
281
     0
  0
CLASS
  1
RTEXT
  2
RText
  3
RText|AutoCAD Express Tool|expresstools@autodesk.com
 90
        0
280
     0
281
     1
  0
CLASS
  1
ARCALIGNEDTEXT
  2
AcDbArcAlignedText
  3
ATEXT|AutoCAD Express Tool|expresstools@autodesk.com
 90
        0
280
     0
281
     1
  0
ENDSEC
  0
SECTION
  2
TABLES
  0
TABLE
  2
VPORT
  5
7
100
AcDbSymbolTable
 70
     2
  0
VPORT
  5
15
100
AcDbSymbolTableRecord
100
AcDbViewportTableRecord
  2
*ACTIVE
 70
     0
 10
0.0
 20
0.0
 11
1.0
 21
1.0
 12
6.591288
 22
4.579184
 13
0.0
 23
0.0
 14
1.0
 24
1.0
 15
0.0
 25
0.0
 16
0.0
 26
0.0
 36
1.0
 17
0.0
 27
0.0
 37
0.0
 40
9.158369
 41
0.688564
 42
50.0
 43
0.0
 44
0.0
 50
0.0
 51
0.0
 71
     0
 72
   100
 73
     1
 74
     1
 75
     0
 76
     0
 77
     0
 78
     0
281
     0
 65
     0
110
0.0
120
0.0
130
0.0
111
1.0
121
0.0
131
0.0
112
0.0
122
1.0
132
0.0
345
0
346
0
 79
     0
146
0.0
  0
VPORT
  5
336
100
AcDbSymbolTableRecord
100
AcDbViewportTableRecord
  2
MYVPORT
 70
     0
 10
0.0
 20
0.0
 11
1.0
 21
1.0
 12
6.21
 22
9.02
 13
0.0
 23
0.0
 14
1.0
 24
1.0
 15
0.0
 25
0.0
 16
0.0
 26
0.0
 36
1.0
 17
0.0
 27
0.0
 37
0.0
 40
18.04
 41
0.688564
 42
50.0
 43
0.0
 44
0.0
 50
0.0
 51
0.0
 71
     0
 72
   100
 73
     1
 74
     1
 75
     0
 76
     0
 77
     0
 78
     0
281
     0
 65
     0
110
0.0
120
0.0
130
0.0
111
1.0
121
0.0
131
0.0
112
0.0
122
1.0
132
0.0
345
0
346
0
 79
     0
146
0.0
  0
ENDTAB
  0
TABLE
  2
LTYPE
  5
4
100
AcDbSymbolTable
 70
     7
  0
LTYPE
  5
11
100
AcDbSymbolTableRecord
100
AcDbLinetypeTableRecord
  2
ByBlock
 70
    64
  3

 72
    65
 73
     0
 40
0.0
  0
LTYPE
  5
12
100
AcDbSymbolTableRecord
100
AcDbLinetypeTableRecord
  2
ByLayer
 70
    64
  3

 72
    65
 73
     0
 40
0.0
  0
LTYPE
  5
13
100
AcDbSymbolTableRecord
100
AcDbLinetypeTableRecord
  2
Continuous
 70
    64
  3
Solid line
 72
    65
 73
     0
 40
0.0
  0
LTYPE
  5
24
100
AcDbSymbolTableRecord
100
AcDbLinetypeTableRecord
  2
DOT
 70
    64
  3
Visual CADD Translation
 72
    65
 73
     2
 40
0.1
 49
0.0
 74
     0
 49
-0.1
 74
     0
  0
LTYPE
  5
26
100
AcDbSymbolTableRecord
100
AcDbLinetypeTableRecord
  2
DASHDOT
 70
    64
  3
Visual CADD Translation
 72
    65
 73
     4
 40
1.0
 49
0.6
 74
     0
 49
-0.2
 74
     0
 49
0.0
 74
     0
 49
-0.2
 74
     0
  0
LTYPE
  5
33
100
AcDbSymbolTableRecord
100
AcDbLinetypeTableRecord
  2
CENTER
 70
    64
  3
Visual CADD Translation
 72
    65
 73
     4
 40
1.265
 49
0.115
 74
     0
 49
-0.07
 74
     0
 49
1.01
 74
     0
 49
-0.07
 74
     0
  0
LTYPE
  5
D9
100
AcDbSymbolTableRecord
100
AcDbLinetypeTableRecord
  2
DASHED
 70
    64
  3
Visual CADD Translation
 72
    65
 73
     2
 40
0.32
 49
0.24
 74
     0
 49
-0.08
 74
     0
  0
ENDTAB
  0
TABLE
  2
LAYER
  5
2
100
AcDbSymbolTable
 70
    22
  0
LAYER
  5
14
100
AcDbSymbolTableRecord
100
AcDbLayerTableRecord
  2
0
 70
     0
 62
     7
  6
Continuous
290
     1
370
    -3
390
1D
  0
LAYER
  5
25
100
AcDbSymbolTableRecord
100
AcDbLayerTableRecord
  2
hidden positions
 70
     0
 62
    54
  6
DOT
290
     1
370
    -3
390
1D
  0
LAYER
  5
27
100
AcDbSymbolTableRecord
100
AcDbLayerTableRecord
  2
revealed positions
 70
     0
 62
   134
  6
DASHDOT
290
     1
370
    -3
390
1D
  0
LAYER
  5
28
100
AcDbSymbolTableRecord
100
AcDbLayerTableRecord
  2
lamps
 70
     0
 62
     7
  6
Continuous
290
     1
370
    -3
390
1D
  0
LAYER
  5
29
100
AcDbSymbolTableRecord
100
AcDbLayerTableRecord
  2
hashmarks
 70
     0
 62
    54
  6
DOT
290
     1
370
    -3
390
1D
  0
LAYER
  5
2A
100
AcDbSymbolTableRecord
100
AcDbLayerTableRecord
  2
legend
 70
     0
 62
     7
  6
Continuous
290
     1
370
    -3
390
1D
  0
LAYER
  5
2B
100
AcDbSymbolTableRecord
100
AcDbLayerTableRecord
  2
drapes
 70
     0
 62
     7
  6
Continuous
290
     1
370
    -3
390
1D
  0
LAYER
  5
2C
100
AcDbSymbolTableRecord
100
AcDbLayerTableRecord
  2
coffee ring
 70
     0
 62
     7
  6
Continuous
290
     1
370
    -3
390
1D
  0
LAYER
  5
2D
100
AcDbSymbolTableRecord
100
AcDbLayerTableRecord
  2
Title Block
 70
     0
 62
     7
  6
Continuous
290
     1
370
    -3
390
1D
  0
LAYER
  5
2E
100
AcDbSymbolTableRecord
100
AcDbLayerTableRecord
  2
middle position
 70
     0
 62
   134
  6
DASHDOT
290
     1
370
    -3
390
1D
  0
LAYER
  5
2F
100
AcDbSymbolTableRecord
100
AcDbLayerTableRecord
  2
notes
 70
     0
 62
     7
  6
Continuous
290
     1
370
    -3
390
1D
  0
LAYER
  5
30
100
AcDbSymbolTableRecord
100
AcDbLayerTableRecord
  2
Booms
 70
     0
 62
     7
  6
Continuous
290
     1
370
    -3
390
1D
  0
LAYER
  5
31
100
AcDbSymbolTableRecord
100
AcDbLayerTableRecord
  2
border
 70
     0
 62
     7
  6
Continuous
290
     1
370
    -3
390
1D
  0
LAYER
  5
32
100
AcDbSymbolTableRecord
100
AcDbLayerTableRecord
  2
area centers
 70
     0
 62
     7
  6
Continuous
290
     1
370
    -3
390
1D
  0
LAYER
  5
34
100
AcDbSymbolTableRecord
100
AcDbLayerTableRecord
  2
centerline
 70
     0
 62
     1
  6
CENTER
290
     1
370
    -3
390
1D
  0
LAYER
  5
35
100
AcDbSymbolTableRecord
100
AcDbLayerTableRecord
  2
available circuits
 70
     0
 62
    54
  6
Continuous
290
     1
370
    -3
390
1D
  0
LAYER
  5
36
100
AcDbSymbolTableRecord
100
AcDbLayerTableRecord
  2
unavailable circuits
 70
     0
 62
   251
  6
Continuous
290
     1
370
    -3
390
1D
  0
LAYER
  5
37
100
AcDbSymbolTableRecord
100
AcDbLayerTableRecord
  2
electrician
 70
     0
 62
     7
  6
Continuous
290
     1
370
    -3
390
1D
  0
LAYER
  5
38
100
AcDbSymbolTableRecord
100
AcDbLayerTableRecord
  2
designer
 70
     0
 62
     7
  6
Continuous
290
     1
370
    -3
390
1D
  0
LAYER
  5
39
100
AcDbSymbolTableRecord
100
AcDbLayerTableRecord
  2
draft
 70
     0
 62
     7
  6
Continuous
290
     1
370
    -3
390
1D
  0
LAYER
  5
3A
100
AcDbSymbolTableRecord
100
AcDbLayerTableRecord
  2
set
 70
     0
 62
     7
  6
Continuous
290
     1
370
    -3
390
1D
  0
LAYER
  5
3B
100
AcDbSymbolTableRecord
100
AcDbLayerTableRecord
  2
final
 70
     0
 62
     7
  6
Continuous
290
     1
370
    -3
390
1D
  0
ENDTAB
  0
TABLE
  2
STYLE
  5
3
100
AcDbSymbolTable
 70
     3
  0
STYLE
  5
17
100
AcDbSymbolTableRecord
100
AcDbTextStyleTableRecord
  2
Standard
 70
     0
 40
0.0
 41
1.0
 50
0.0
 71
     0
 42
0.0
  3
txt
  4

  0
STYLE
  5
43
100
AcDbSymbolTableRecord
100
AcDbTextStyleTableRecord
  2
Vcadd_ENGINEER
 70
     0
 40
0.0
 41
1.0
 50
0.0
 71
     0
 42
0.0
  3
ENGINEER
  4

  0
STYLE
  5
D1
100
AcDbSymbolTableRecord
100
AcDbTextStyleTableRecord
  2
Vcadd_Helvet
 70
     0
 40
0.0
 41
1.0
 50
0.0
 71
     0
 42
0.0
  3
Helvet
  4

  0
ENDTAB
  0
TABLE
  2
VIEW
  5
5
100
AcDbSymbolTable
 70
     0
  0
ENDTAB
  0
TABLE
  2
UCS
  5
6
100
AcDbSymbolTable
 70
     1
  0
UCS
  5
335
100
AcDbSymbolTableRecord
100
AcDbUCSTableRecord
  2
MYUCS
 70
     0
 10
0.0
 20
0.0
 30
0.0
 11
0.0
 21
1.0
 31
0.0
 12
0.0
 22
0.0
 32
1.0
 79
     0
146
0.0
  0
ENDTAB
  0
TABLE
  2
APPID
  5
8
100
AcDbSymbolTable
 70
     1
  0
APPID
  5
16
100
AcDbSymbolTableRecord
100
AcDbRegAppTableRecord
  2
ACAD
 70
     0
  0
ENDTAB
  0
TABLE
  2
DIMSTYLE
  5
9
100
AcDbSymbolTable
 70
     2
100
AcDbDimStyleTable
 71
     0
  0
DIMSTYLE
105
18
100
AcDbSymbolTableRecord
100
AcDbDimStyleTableRecord
  2
Standard
 70
     0
  3

  4

 40
1.0
 41
0.18
 42
0.0625
 43
0.38
 44
0.18
 45
0.0
 46
0.0
 47
0.0
 48
0.0
 71
     0
 72
     0
 73
     1
 74
     1
 75
     0
 76
     0
 77
     0
 78
     0
 79
     0
140
0.18
141
0.09
142
0.0
143
25.4
144
1.0
145
0.0
146
1.0
147
0.09
148
0.0
170
     0
171
     2
172
     0
173
     0
174
     0
175
     0
176
     0
177
     0
178
     0
179
     0
271
     4
272
     4
273
     2
274
     2
275
     0
276
     0
277
     2
278
    46
279
     0
280
     0
281
     0
282
     0
283
     1
284
     0
285
     0
286
     0
288
     0
289
     3
340
17
341
0
342
0
343
0
344
0
371
    -2
372
    -2
  0
DIMSTYLE
105
44
100
AcDbSymbolTableRecord
100
AcDbDimStyleTableRecord
  2
VCADD_DIMSTYLE
 70
     0
  3

  4

 40
1.0
 41
1.0
 42
0.2
 43
0.0
 44
0.2
 45
0.0
 46
0.0
 47
1.0
 48
1.0
 71
     0
 72
     0
 73
     0
 74
     1
 75
     0
 76
     0
 77
     0
 78
     3
 79
     0
140
3.0
141
0.0
142
0.0
143
25.4
144
1.0
145
0.0
146
1.0
147
0.2
148
0.0
170
     0
171
     0
172
     0
173
     0
174
     1
175
     0
176
     1
177
     1
178
     1
179
     0
271
     0
272
     4
273
     2
274
     2
275
     0
276
     0
277
     4
278
    46
279
     0
280
     0
281
     0
282
     0
283
     1
284
     0
285
     0
286
     0
288
     0
289
     3
340
43
341
0
342
0
343
0
344
0
371
    -2
372
    -2
  0
ENDTAB
  0
TABLE
  2
BLOCK_RECORD
  5
1
100
AcDbSymbolTable
 70
     8
  0
BLOCK_RECORD
  5
A
100
AcDbSymbolTableRecord
100
AcDbBlockTableRecord
  2
*MODEL_SPACE
340
20
  0
BLOCK_RECORD
  5
B
100
AcDbSymbolTableRecord
100
AcDbBlockTableRecord
  2
*PAPER_SPACE
340
21
  0
BLOCK_RECORD
  5
3C
100
AcDbSymbolTableRecord
100
AcDbBlockTableRecord
  2
_CLOSED
340
0
  0
BLOCK_RECORD
  5
DF
100
AcDbSymbolTableRecord
100
AcDbBlockTableRecord
  2
DRAPE
340
0
102
{BLKREFS
331
E8
331
E9
331
F2
331
F3
331
F4
331
F5
331
F6
331
F7
331
F8
331
F9
331
FA
331
FB
331
FC
331
FD
331
FE
331
FF
331
100
331
109
331
10A
331
10B
331
10C
331
10D
331
10E
331
10F
331
110
331
111
331
112
331
113
331
114
331
115
331
116
331
11F
331
120
331
121
331
122
331
123
331
124
331
125
331
126
331
127
331
128
331
129
331
12A
331
12B
331
134
331
135
331
136
331
137
331
138
331
139
331
13A
331
13B
331
13C
331
13D
331
13E
331
143
331
144
331
145
331
146
331
147
331
148
331
28C
331
28D
331
2D0
331
30A
102
}
  0
BLOCK_RECORD
  5
14B
100
AcDbSymbolTableRecord
100
AcDbBlockTableRecord
  2
hanging position
340
0
102
{BLKREFS
331
166
331
167
331
168
331
1FC
331
1FD
331
1FE
331
1FF
331
20C
102
}
  0
BLOCK_RECORD
  5
170
100
AcDbSymbolTableRecord
100
AcDbBlockTableRecord
  2
2ft rule
340
0
102
{BLKREFS
331
17F
331
180
331
181
331
182
331
183
331
184
331
185
331
186
331
187
331
188
331
189
331
18A
331
18B
331
18C
331
18D
331
18E
331
18F
331
190
331
191
331
192
331
193
331
194
331
195
331
196
331
197
331
198
331
314
331
317
331
318
331
319
331
31A
331
31B
331
31C
331
31D
331
31E
331
31F
331
320
102
}
  0
BLOCK_RECORD
  5
211
100
AcDbSymbolTableRecord
100
AcDbBlockTableRecord
  2
hanging position oval
340
0
102
{BLKREFS
331
280
331
281
331
2B4
331
2CD
331
2D4
331
30C
331
32C
331
32F
331
332
102
}
  0
BLOCK_RECORD
  5
290
100
AcDbSymbolTableRecord
100
AcDbBlockTableRecord
  2
pipe slash
340
0
102
{BLKREFS
331
299
331
2A2
102
}
  0
BLOCK_RECORD
  5
2AA
100
AcDbSymbolTableRecord
100
AcDbBlockTableRecord
  2
sightln
340
0
102
{BLKREFS
331
2B1
331
334
102
}
  0
BLOCK_RECORD
  5
2BC
100
AcDbSymbolTableRecord
100
AcDbBlockTableRecord
  2
arrwhead
340
0
102
{BLKREFS
331
2C6
331
2C9
102
}
  0
ENDTAB
  0
ENDSEC
  0
SECTION
  2
BLOCKS
  0
BLOCK
  5
D
100
AcDbEntity
  8
0
390
0
100
AcDbBlockBegin
  2
*MODEL_SPACE
 70
     0
 10
0.0
 20
0.0
 30
0.0
  3
*MODEL_SPACE
  1

  0
ENDBLK
  5
E
100
AcDbEntity
  8
0
390
0
100
AcDbBlockEnd
  0
BLOCK
  5
F
100
AcDbEntity
 67
     1
  8
0
390
0
100
AcDbBlockBegin
  2
*PAPER_SPACE
 70
     0
 10
0.0
 20
0.0
 30
0.0
  3
*PAPER_SPACE
  1

  0
ENDBLK
  5
10
100
AcDbEntity
 67
     1
  8
0
390
0
100
AcDbBlockEnd
  0
BLOCK
  5
3D
100
AcDbEntity
  8
0
390
0
100
AcDbBlockBegin
  2
_CLOSED
 70
     0
 10
0.0
 20
0.0
 30
0.0
  3
_CLOSED
  1

  0
LINE
  5
3E
100
AcDbEntity
  8
0
370
    -2
390
0
  6
ByBlock
 62
     0
100
AcDbLine
 10
-1.0
 20
0.166667
 30
0.0
 11
0.0
 21
0.0
 31
0.0
  0
LINE
  5
3F
100
AcDbEntity
  8
0
370
    -2
390
0
  6
ByBlock
 62
     0
100
AcDbLine
 10
0.0
 20
0.0
 30
0.0
 11
-1.0
 21
-0.166667
 31
0.0
  0
LINE
  5
40
100
AcDbEntity
  8
0
370
    -2
390
0
  6
ByBlock
 62
     0
100
AcDbLine
 10
-1.0
 20
0.166667
 30
0.0
 11
-1.0
 21
-0.166667
 31
0.0
  0
LINE
  5
41
100
AcDbEntity
  8
0
370
    -2
390
0
  6
ByBlock
 62
     0
100
AcDbLine
 10
0.0
 20
0.0
 30
0.0
 11
-1.0
 21
0.0
 31
0.0
  0
ENDBLK
  5
42
100
AcDbEntity
  8
0
390
0
100
AcDbBlockEnd
  0
BLOCK
  5
E0
100
AcDbEntity
  8
0
390
0
100
AcDbBlockBegin
  2
DRAPE
 70
     0
 10
0.0
 20
0.0
 30
0.0
  3
DRAPE
  1

  0
ARC
  5
E1
100
AcDbEntity
  8
0
370
     0
390
0
  6
Continuous
 62
   134
100
AcDbCircle
 10
0.0
 20
1.0
 30
0.0
 40
1.0
100
AcDbArc
 50
270.0
 51
450.0
  0
ARC
  5
E2
100
AcDbEntity
  8
0
370
     0
390
0
  6
Continuous
 62
   134
100
AcDbCircle
 10
0.0
 20
-1.0
 30
0.0
 40
1.0
100
AcDbArc
 50
90.0
 51
270.0
  0
ARC
  5
E3
100
AcDbEntity
  8
0
370
     0
390
0
  6
Continuous
 62
   134
100
AcDbCircle
 10
0.0
 20
-3.0
 30
0.0
 40
1.0
100
AcDbArc
 50
270.0
 51
450.0
  0
ARC
  5
E4
100
AcDbEntity
  8
0
370
     0
390
0
  6
Continuous
 62
   134
100
AcDbCircle
 10
0.0
 20
3.0
 30
0.0
 40
1.0
100
AcDbArc
 50
90.0
 51
270.0
  0
ARC
  5
E5
100
AcDbEntity
  8
0
370
     0
390
0
  6
Continuous
 62
   134
100
AcDbCircle
 10
0.0
 20
-5.0
 30
0.0
 40
1.0
100
AcDbArc
 50
90.0
 51
270.0
  0
ARC
  5
E6
100
AcDbEntity
  8
0
370
     0
390
0
  6
Continuous
 62
   134
100
AcDbCircle
 10
0.0
 20
5.0
 30
0.0
 40
1.0
100
AcDbArc
 50
270.0
 51
450.0
  0
ENDBLK
  5
E7
100
AcDbEntity
  8
0
390
0
100
AcDbBlockEnd
  0
BLOCK
  5
14C
100
AcDbEntity
  8
0
390
0
100
AcDbBlockBegin
  2
hanging position
 70
     0
 10
0.0
 20
0.0
 30
0.0
  3
hanging position
  1

  0
HATCH
  5
14D
100
AcDbEntity
  8
lamps
370
     0
390
0
  6
Continuous
 62
    94
100
AcDbHatch
 10
0.0
 20
0.0
 30
0.0
210
0.0
220
0.0
230
1.0
  2
DASH
 70
     0
 71
     0
 91
        1
 92
        1
 93
        4
 72
     1
 10
8.0543968677519615
 20
0.0287225214191267
 11
9.0036156177518478
 21
0.0287225214191267
 72
     1
 10
9.0036156177518478
 20
0.0287225214191267
 11
0.94921875
 21
8.0831193891712019
 72
     1
 10
0.94921875
 20
8.0831193891712019
 11
0.0
 21
8.0831193891712019
 72
     1
 10
0.0
 20
8.0831193891712019
 11
8.0543968677519615
 21
0.0287225214191267
 97
        0
 75
     0
 76
     1
 52
45.0
 41
6.0
 77
     0
 78
     1
 53
45.0
 43
0.0
 44
0.0
 45
-0.0000000000000549
 46
1.0606601717798212
 79
     2
 49
0.75
 49
-0.75
 98
        1
 10
0.0
 20
0.0
  0
HATCH
  5
14E
100
AcDbEntity
  8
lamps
370
     0
390
0
  6
Continuous
 62
    94
100
AcDbHatch
 10
0.0
 20
0.0
 30
0.0
210
0.0
220
0.0
230
1.0
  2
DASH
 70
     0
 71
     0
 91
        1
 92
        1
 93
        4
 72
     1
 10
8.0543968677519615
 20
0.0287225214191267
 11
9.0036156177518478
 21
0.0287225214191267
 72
     1
 10
9.0036156177518478
 20
0.0287225214191267
 11
0.94921875
 21
-8.0256743463330622
 72
     1
 10
0.94921875
 20
-8.0256743463330622
 11
0.0
 21
-8.0256743463330622
 72
     1
 10
0.0
 20
-8.0256743463330622
 11
8.0543968677519615
 21
0.0287225214191267
 97
        0
 75
     0
 76
     1
 52
135.0
 41
6.0
 77
     0
 78
     1
 53
135.0
 43
0.0
 44
0.0
 45
-1.0606601717798212
 46
-0.0000000000001643
 79
     2
 49
0.75
 49
-0.75
 98
        1
 10
0.0
 20
0.0
  0
LINE
  5
14F
100
AcDbEntity
  8
lamps
370
     0
390
0
  6
Continuous
 62
     7
100
AcDbLine
 10
0.949219
 20
-8.025674
 30
0.0
 11
0.949219
 21
-8.025674
 31
0.0
  0
LINE
  5
150
100
AcDbEntity
  8
lamps
370
     0
390
0
  6
Continuous
 62
     7
100
AcDbLine
 10
0.0
 20
-8.025674
 30
0.0
 11
0.949219
 21
-8.025674
 31
0.0
  0
LINE
  5
151
100
AcDbEntity
  8
lamps
370
     0
390
0
  6
Continuous
 62
     7
100
AcDbLine
 10
8.054397
 20
0.028723
 30
0.0
 11
0.0
 21
-8.025674
 31
0.0
  0
LINE
  5
152
100
AcDbEntity
  8
lamps
370
     0
390
0
  6
Continuous
 62
     7
100
AcDbLine
 10
0.0
 20
8.083119
 30
0.0
 11
8.054397
 21
0.028723
 31
0.0
  0
LINE
  5
153
100
AcDbEntity
  8
lamps
370
     0
390
0
  6
Continuous
 62
     7
100
AcDbLine
 10
0.949219
 20
8.083119
 30
0.0
 11
0.0
 21
8.083119
 31
0.0
  0
LINE
  5
154
100
AcDbEntity
  8
lamps
370
     0
390
0
  6
Continuous
 62
     7
100
AcDbLine
 10
9.003616
 20
0.028723
 30
0.0
 11
0.949219
 21
8.083119
 31
0.0
  0
LINE
  5
155
100
AcDbEntity
  8
lamps
370
     0
390
0
  6
Continuous
 62
     7
100
AcDbLine
 10
0.949219
 20
-8.025674
 30
0.0
 11
9.003616
 21
0.028723
 31
0.0
  0
LINE
  5
156
100
AcDbEntity
  8
lamps
370
     0
390
0
  6
Continuous
 62
     7
100
AcDbLine
 10
8.054397
 20
0.028723
 30
0.0
 11
9.003616
 21
0.028723
 31
0.0
  0
LINE
  5
157
100
AcDbEntity
  8
lamps
370
     0
390
0
  6
Continuous
 62
    14
100
AcDbLine
 10
-8.054397
 20
0.028723
 30
0.0
 11
0.0
 21
8.083119
 31
0.0
  0
LINE
  5
158
100
AcDbEntity
  8
lamps
370
     0
390
0
  6
Continuous
 62
    14
100
AcDbLine
 10
0.0
 20
-8.025674
 30
0.0
 11
-8.054397
 21
0.028723
 31
0.0
  0
LINE
  5
159
100
AcDbEntity
  8
lamps
370
     0
390
0
  6
Continuous
 62
   174
100
AcDbLine
 10
0.0
 20
2.81887
 30
0.0
 11
0.088388
 21
2.907258
 31
0.0
  0
LINE
  5
15A
100
AcDbEntity
  8
lamps
370
     0
390
0
  6
Continuous
 62
   174
100
AcDbLine
 10
0.0
 20
-3.231087
 30
0.0
 11
0.088388
 21
-3.142698
 31
0.0
  0
LINE
  5
15B
100
AcDbEntity
  8
lamps
370
     0
390
0
  6
Continuous
 62
   174
100
AcDbLine
 10
0.0
 20
0.0
 30
0.0
 11
0.088388
 21
0.088388
 31
0.0
  0
LINE
  5
15C
100
AcDbEntity
  8
lamps
370
     0
390
0
  6
Continuous
 62
   174
100
AcDbLine
 10
0.0
 20
2.81887
 30
0.0
 11
0.088388
 21
2.730482
 31
0.0
  0
LINE
  5
15D
100
AcDbEntity
  8
lamps
370
     0
390
0
  6
Continuous
 62
   174
100
AcDbLine
 10
0.0
 20
-3.231087
 30
0.0
 11
0.088388
 21
-3.319475
 31
0.0
  0
LINE
  5
15E
100
AcDbEntity
  8
lamps
370
     0
390
0
  6
Continuous
 62
   174
100
AcDbLine
 10
0.0
 20
0.0
 30
0.0
 11
0.088388
 21
-0.088388
 31
0.0
  0
LINE
  5
15F
100
AcDbEntity
  8
lamps
370
     0
390
0
  6
Continuous
 62
   174
100
AcDbLine
 10
0.0
 20
2.81887
 30
0.0
 11
-0.088388
 21
2.730482
 31
0.0
  0
LINE
  5
160
100
AcDbEntity
  8
lamps
370
     0
390
0
  6
Continuous
 62
   174
100
AcDbLine
 10
0.0
 20
-3.231087
 30
0.0
 11
-0.088388
 21
-3.319475
 31
0.0
  0
LINE
  5
161
100
AcDbEntity
  8
lamps
370
     0
390
0
  6
Continuous
 62
   174
100
AcDbLine
 10
0.0
 20
0.0
 30
0.0
 11
-0.088388
 21
-0.088388
 31
0.0
  0
LINE
  5
162
100
AcDbEntity
  8
lamps
370
     0
390
0
  6
Continuous
 62
   174
100
AcDbLine
 10
0.0
 20
2.81887
 30
0.0
 11
-0.088388
 21
2.907258
 31
0.0
  0
LINE
  5
163
100
AcDbEntity
  8
lamps
370
     0
390
0
  6
Continuous
 62
   174
100
AcDbLine
 10
0.0
 20
-3.231087
 30
0.0
 11
-0.088388
 21
-3.142698
 31
0.0
  0
LINE
  5
164
100
AcDbEntity
  8
lamps
370
     0
390
0
  6
Continuous
 62
   174
100
AcDbLine
 10
0.0
 20
0.0
 30
0.0
 11
-0.088388
 21
0.088388
 31
0.0
  0
ENDBLK
  5
165
100
AcDbEntity
  8
0
390
0
100
AcDbBlockEnd
  0
BLOCK
  5
171
100
AcDbEntity
  8
0
390
0
100
AcDbBlockBegin
  2
2ft rule
 70
     0
 10
0.0
 20
0.0
 30
0.0
  3
2ft rule
  1

  0
LINE
  5
172
100
AcDbEntity
  8
revealed positions
370
     0
390
0
  6
Continuous
 62
     3
100
AcDbLine
 10
10.5
 20
9.0
 30
0.0
 11
10.411612
 21
9.088388
 31
0.0
  0
LINE
  5
173
100
AcDbEntity
  8
revealed positions
370
     0
390
0
  6
Continuous
 62
     3
100
AcDbLine
 10
10.5
 20
9.0
 30
0.0
 11
10.411612
 21
8.911612
 31
0.0
  0
LINE
  5
174
100
AcDbEntity
  8
revealed positions
370
     0
390
0
  6
Continuous
 62
     3
100
AcDbLine
 10
13.5
 20
9.0
 30
0.0
 11
13.588388
 21
9.088388
 31
0.0
  0
LINE
  5
175
100
AcDbEntity
  8
revealed positions
370
     0
390
0
  6
Continuous
 62
     3
100
AcDbLine
 10
13.5
 20
9.0
 30
0.0
 11
13.588388
 21
8.911612
 31
0.0
  0
LINE
  5
176
100
AcDbEntity
  8
revealed positions
370
     0
390
0
  6
Continuous
 62
     3
100
AcDbLine
 10
12.0
 20
9.0
 30
0.0
 11
11.911612
 21
8.911612
 31
0.0
  0
LINE
  5
177
100
AcDbEntity
  8
revealed positions
370
     0
390
0
  6
Continuous
 62
     3
100
AcDbLine
 10
12.0
 20
9.0
 30
0.0
 11
12.088388
 21
8.911612
 31
0.0
  0
LINE
  5
178
100
AcDbEntity
  8
revealed positions
370
     0
390
0
  6
Continuous
 62
     7
100
AcDbLine
 10
24.0
 20
0.0
 30
0.0
 11
24.0
 21
12.0
 31
0.0
  0
LINE
  5
179
100
AcDbEntity
  8
revealed positions
370
     0
390
0
  6
Continuous
 62
     7
100
AcDbLine
 10
12.0
 20
0.0
 30
0.0
 11
12.0
 21
6.0
 31
0.0
  0
LINE
  5
17A
100
AcDbEntity
  8
revealed positions
370
     0
390
0
  6
Continuous
 62
     7
100
AcDbLine
 10
6.0
 20
0.0
 30
0.0
 11
6.0
 21
3.0
 31
0.0
  0
LINE
  5
17B
100
AcDbEntity
  8
revealed positions
370
     0
390
0
  6
Continuous
 62
     7
100
AcDbLine
 10
18.0
 20
0.0
 30
0.0
 11
18.0
 21
3.0
 31
0.0
  0
LINE
  5
17C
100
AcDbEntity
  8
revealed positions
370
     0
390
0
  6
Continuous
 62
     7
100
AcDbLine
 10
0.0
 20
0.0
 30
0.0
 11
24.0
 21
0.0
 31
0.0
  0
LINE
  5
17D
100
AcDbEntity
  8
revealed positions
370
     0
390
0
  6
Continuous
 62
     5
100
AcDbLine
 10
12.034855
 20
7.0
 30
0.0
 11
12.034855
 21
7.0
 31
0.0
  0
ENDBLK
  5
17E
100
AcDbEntity
  8
0
390
0
100
AcDbBlockEnd
  0
BLOCK
  5
212
100
AcDbEntity
  8
0
390
0
100
AcDbBlockBegin
  2
hanging position oval
 70
     0
 10
0.0
 20
0.0
 30
0.0
  3
hanging position oval
  1

  0
POLYLINE
  5
213
100
AcDbEntity
  8
lamps
370
    30
390
0
  6
Continuous
 62
    94
100
AcDb2dPolyline
 66
     1
 10
0.0
 20
0.0
 30
0.0
 70
     4
  0
VERTEX
  5
214
100
AcDbEntity
  8
lamps
370
    30
390
0
  6
Continuous
 62
    94
100
AcDbVertex
100
AcDb2dVertex
 10
-9.010773
 20
4.010447
 30
0.0
  0
VERTEX
  5
215
100
AcDbEntity
  8
lamps
370
    30
390
0
  6
Continuous
 62
    94
100
AcDbVertex
100
AcDb2dVertex
 10
-9.199144
 20
4.002554
 30
0.0
 70
     8
  0
VERTEX
  5
216
100
AcDbEntity
  8
lamps
370
    30
390
0
  6
Continuous
 62
    94
100
AcDbVertex
100
AcDb2dVertex
 10
-9.386772
 20
3.978906
 30
0.0
 70
     8
  0
VERTEX
  5
217
100
AcDbEntity
  8
lamps
370
    30
390
0
  6
Continuous
 62
    94
100
AcDbVertex
100
AcDb2dVertex
 10
-9.572916
 20
3.939597
 30
0.0
 70
     8
  0
VERTEX
  5
218
100
AcDbEntity
  8
lamps
370
    30
390
0
  6
Continuous
 62
    94
100
AcDbVertex
100
AcDb2dVertex
 10
-9.756841
 20
3.884781
 30
0.0
 70
     8
  0
VERTEX
  5
219
100
AcDbEntity
  8
lamps
370
    30
390
0
  6
Continuous
 62
    94
100
AcDbVertex
100
AcDb2dVertex
 10
-9.937822
 20
3.814675
 30
0.0
 70
     8
  0
VERTEX
  5
21A
100
AcDbEntity
  8
lamps
370
    30
390
0
  6
Continuous
 62
    94
100
AcDbVertex
100
AcDb2dVertex
 10
-10.115144
 20
3.729555
 30
0.0
 70
     8
  0
VERTEX
  5
21B
100
AcDbEntity
  8
lamps
370
    30
390
0
  6
Continuous
 62
    94
100
AcDbVertex
100
AcDb2dVertex
 10
-10.288108
 20
3.629758
 30
0.0
 70
     8
  0
VERTEX
  5
21C
100
AcDbEntity
  8
lamps
370
    30
390
0
  6
Continuous
 62
    94
100
AcDbVertex
100
AcDb2dVertex
 10
-10.45603
 20
3.515677
 30
0.0
 70
     8
  0
VERTEX
  5
21D
100
AcDbEntity
  8
lamps
370
    30
390
0
  6
Continuous
 62
    94
100
AcDbVertex
100
AcDb2dVertex
 10
-10.618249
 20
3.387763
 30
0.0
 70
     8
  0
VERTEX
  5
21E
100
AcDbEntity
  8
lamps
370
    30
390
0
  6
Continuous
 62
    94
100
AcDbVertex
100
AcDb2dVertex
 10
-10.774124
 20
3.24652
 30
0.0
 70
     8
  0
VERTEX
  5
21F
100
AcDbEntity
  8
lamps
370
    30
390
0
  6
Continuous
 62
    94
100
AcDbVertex
100
AcDb2dVertex
 10
-10.92304
 20
3.092506
 30
0.0
 70
     8
  0
VERTEX
  5
220
100
AcDbEntity
  8
lamps
370
    30
390
0
  6
Continuous
 62
    94
100
AcDbVertex
100
AcDb2dVertex
 10
-11.06441
 20
2.926328
 30
0.0
 70
     8
  0
VERTEX
  5
221
100
AcDbEntity
  8
lamps
370
    30
390
0
  6
Continuous
 62
    94
100
AcDbVertex
100
AcDb2dVertex
 10
-11.197674
 20
2.748643
 30
0.0
 70
     8
  0
VERTEX
  5
222
100
AcDbEntity
  8
lamps
370
    30
390
0
  6
Continuous
 62
    94
100
AcDbVertex
100
AcDb2dVertex
 10
-11.322308
 20
2.560152
 30
0.0
 70
     8
  0
VERTEX
  5
223
100
AcDbEntity
  8
lamps
370
    30
390
0
  6
Continuous
 62
    94
100
AcDbVertex
100
AcDb2dVertex
 10
-11.437819
 20
2.361598
 30
0.0
 70
     8
  0
VERTEX
  5
224
100
AcDbEntity
  8
lamps
370
    30
390
0
  6
Continuous
 62
    94
100
AcDbVertex
100
AcDb2dVertex
 10
-11.543752
 20
2.153765
 30
0.0
 70
     8
  0
VERTEX
  5
225
100
AcDbEntity
  8
lamps
370
    30
390
0
  6
Continuous
 62
    94
100
AcDbVertex
100
AcDb2dVertex
 10
-11.639689
 20
1.937473
 30
0.0
 70
     8
  0
VERTEX
  5
226
100
AcDbEntity
  8
lamps
370
    30
390
0
  6
Continuous
 62
    94
100
AcDbVertex
100
AcDb2dVertex
 10
-11.72525
 20
1.713577
 30
0.0
 70
     8
  0
VERTEX
  5
227
100
AcDbEntity
  8
lamps
370
    30
390
0
  6
Continuous
 62
    94
100
AcDbVertex
100
AcDb2dVertex
 10
-11.800099
 20
1.482959
 30
0.0
 70
     8
  0
VERTEX
  5
228
100
AcDbEntity
  8
lamps
370
    30
390
0
  6
Continuous
 62
    94
100
AcDbVertex
100
AcDb2dVertex
 10
-11.863939
 20
1.24653
 30
0.0
 70
     8
  0
VERTEX
  5
229
100
AcDbEntity
  8
lamps
370
    30
390
0
  6
Continuous
 62
    94
100
AcDbVertex
100
AcDb2dVertex
 10
-11.91652
 20
1.005222
 30
0.0
 70
     8
  0
VERTEX
  5
22A
100
AcDbEntity
  8
lamps
370
    30
390
0
  6
Continuous
 62
    94
100
AcDbVertex
100
AcDb2dVertex
 10
-11.957633
 20
0.759989
 30
0.0
 70
     8
  0
VERTEX
  5
22B
100
AcDbEntity
  8
lamps
370
    30
390
0
  6
Continuous
 62
    94
100
AcDbVertex
100
AcDb2dVertex
 10
-11.987116
 20
0.511798
 30
0.0
 70
     8
  0
VERTEX
  5
22C
100
AcDbEntity
  8
lamps
370
    30
390
0
  6
Continuous
 62
    94
100
AcDbVertex
100
AcDb2dVertex
 10
-12.004853
 20
0.261628
 30
0.0
 70
     8
  0
VERTEX
  5
22D
100
AcDbEntity
  8
lamps
370
    30
390
0
  6
Continuous
 62
    94
100
AcDbVertex
100
AcDb2dVertex
 10
-12.010773
 20
0.010466
 30
0.0
 70
     8
  0
VERTEX
  5
22E
100
AcDbEntity
  8
lamps
370
    30
390
0
  6
Continuous
 62
    94
100
AcDbVertex
100
AcDb2dVertex
 10
-12.004854
 20
-0.240695
 30
0.0
 70
     8
  0
VERTEX
  5
22F
100
AcDbEntity
  8
lamps
370
    30
390
0
  6
Continuous
 62
    94
100
AcDbVertex
100
AcDb2dVertex
 10
-11.987119
 20
-0.490865
 30
0.0
 70
     8
  0
VERTEX
  5
230
100
AcDbEntity
  8
lamps
370
    30
390
0
  6
Continuous
 62
    94
100
AcDbVertex
100
AcDb2dVertex
 10
-11.957638
 20
-0.739057
 30
0.0
 70
     8
  0
VERTEX
  5
231
100
AcDbEntity
  8
lamps
370
    30
390
0
  6
Continuous
 62
    94
100
AcDbVertex
100
AcDb2dVertex
 10
-11.916527
 20
-0.984291
 30
0.0
 70
     8
  0
VERTEX
  5
232
100
AcDbEntity
  8
lamps
370
    30
390
0
  6
Continuous
 62
    94
100
AcDbVertex
100
AcDb2dVertex
 10
-11.863948
 20
-1.225599
 30
0.0
 70
     8
  0
VERTEX
  5
233
100
AcDbEntity
  8
lamps
370
    30
390
0
  6
Continuous
 62
    94
100
AcDbVertex
100
AcDb2dVertex
 10
-11.800109
 20
-1.462029
 30
0.0
 70
     8
  0
VERTEX
  5
234
100
AcDbEntity
  8
lamps
370
    30
390
0
  6
Continuous
 62
    94
100
AcDbVertex
100
AcDb2dVertex
 10
-11.725262
 20
-1.692648
 30
0.0
 70
     8
  0
VERTEX
  5
235
100
AcDbEntity
  8
lamps
370
    30
390
0
  6
Continuous
 62
    94
100
AcDbVertex
100
AcDb2dVertex
 10
-11.639702
 20
-1.916545
 30
0.0
 70
     8
  0
VERTEX
  5
236
100
AcDbEntity
  8
lamps
370
    30
390
0
  6
Continuous
 62
    94
100
AcDbVertex
100
AcDb2dVertex
 10
-11.543768
 20
-2.132838
 30
0.0
 70
     8
  0
VERTEX
  5
237
100
AcDbEntity
  8
lamps
370
    30
390
0
  6
Continuous
 62
    94
100
AcDbVertex
100
AcDb2dVertex
 10
-11.437836
 20
-2.340672
 30
0.0
 70
     8
  0
VERTEX
  5
238
100
AcDbEntity
  8
lamps
370
    30
390
0
  6
Continuous
 62
    94
100
AcDbVertex
100
AcDb2dVertex
 10
-11.322326
 20
-2.539227
 30
0.0
 70
     8
  0
VERTEX
  5
239
100
AcDbEntity
  8
lamps
370
    30
390
0
  6
Continuous
 62
    94
100
AcDbVertex
100
AcDb2dVertex
 10
-11.197694
 20
-2.72772
 30
0.0
 70
     8
  0
VERTEX
  5
23A
100
AcDbEntity
  8
lamps
370
    30
390
0
  6
Continuous
 62
    94
100
AcDbVertex
100
AcDb2dVertex
 10
-11.06443
 20
-2.905407
 30
0.0
 70
     8
  0
VERTEX
  5
23B
100
AcDbEntity
  8
lamps
370
    30
390
0
  6
Continuous
 62
    94
100
AcDbVertex
100
AcDb2dVertex
 10
-10.923062
 20
-3.071587
 30
0.0
 70
     8
  0
VERTEX
  5
23C
100
AcDbEntity
  8
lamps
370
    30
390
0
  6
Continuous
 62
    94
100
AcDbVertex
100
AcDb2dVertex
 10
-10.774148
 20
-3.225603
 30
0.0
 70
     8
  0
VERTEX
  5
23D
100
AcDbEntity
  8
lamps
370
    30
390
0
  6
Continuous
 62
    94
100
AcDbVertex
100
AcDb2dVertex
 10
-10.618274
 20
-3.366848
 30
0.0
 70
     8
  0
VERTEX
  5
23E
100
AcDbEntity
  8
lamps
370
    30
390
0
  6
Continuous
 62
    94
100
AcDbVertex
100
AcDb2dVertex
 10
-10.456055
 20
-3.494764
 30
0.0
 70
     8
  0
VERTEX
  5
23F
100
AcDbEntity
  8
lamps
370
    30
390
0
  6
Continuous
 62
    94
100
AcDbVertex
100
AcDb2dVertex
 10
-10.288133
 20
-3.608847
 30
0.0
 70
     8
  0
VERTEX
  5
240
100
AcDbEntity
  8
lamps
370
    30
390
0
  6
Continuous
 62
    94
100
AcDbVertex
100
AcDb2dVertex
 10
-10.11517
 20
-3.708646
 30
0.0
 70
     8
  0
VERTEX
  5
241
100
AcDbEntity
  8
lamps
370
    30
390
0
  6
Continuous
 62
    94
100
AcDbVertex
100
AcDb2dVertex
 10
-9.937849
 20
-3.793768
 30
0.0
 70
     8
  0
VERTEX
  5
242
100
AcDbEntity
  8
lamps
370
    30
390
0
  6
Continuous
 62
    94
100
AcDbVertex
100
AcDb2dVertex
 10
-9.756868
 20
-3.863877
 30
0.0
 70
     8
  0
VERTEX
  5
243
100
AcDbEntity
  8
lamps
370
    30
390
0
  6
Continuous
 62
    94
100
AcDbVertex
100
AcDb2dVertex
 10
-9.572944
 20
-3.918695
 30
0.0
 70
     8
  0
VERTEX
  5
244
100
AcDbEntity
  8
lamps
370
    30
390
0
  6
Continuous
 62
    94
100
AcDbVertex
100
AcDb2dVertex
 10
-9.3868
 20
-3.958007
 30
0.0
 70
     8
  0
VERTEX
  5
245
100
AcDbEntity
  8
lamps
370
    30
390
0
  6
Continuous
 62
    94
100
AcDbVertex
100
AcDb2dVertex
 10
-9.199173
 20
-3.981657
 30
0.0
 70
     8
  0
VERTEX
  5
246
100
AcDbEntity
  8
lamps
370
    30
390
0
  6
Continuous
 62
    94
100
AcDbVertex
100
AcDb2dVertex
 10
-9.010802
 20
-3.989553
 30
0.0
  0
SEQEND
  5
247
100
AcDbEntity
  8
lamps
370
    30
390
0
  6
Continuous
 62
    94
  0
POLYLINE
  5
248
100
AcDbEntity
  8
lamps
370
    30
390
0
  6
Continuous
 62
    94
100
AcDb2dPolyline
 66
     1
 10
0.0
 20
0.0
 30
0.0
 70
     4
  0
VERTEX
  5
249
100
AcDbEntity
  8
lamps
370
    30
390
0
  6
Continuous
 62
    94
100
AcDbVertex
100
AcDb2dVertex
 10
8.989227
 20
4.010447
 30
0.0
  0
VERTEX
  5
24A
100
AcDbEntity
  8
lamps
370
    30
390
0
  6
Continuous
 62
    94
100
AcDbVertex
100
AcDb2dVertex
 10
9.177599
 20
4.002554
 30
0.0
 70
     8
  0
VERTEX
  5
24B
100
AcDbEntity
  8
lamps
370
    30
390
0
  6
Continuous
 62
    94
100
AcDbVertex
100
AcDb2dVertex
 10
9.365227
 20
3.978906
 30
0.0
 70
     8
  0
VERTEX
  5
24C
100
AcDbEntity
  8
lamps
370
    30
390
0
  6
Continuous
 62
    94
100
AcDbVertex
100
AcDb2dVertex
 10
9.551372
 20
3.939596
 30
0.0
 70
     8
  0
VERTEX
  5
24D
100
AcDbEntity
  8
lamps
370
    30
390
0
  6
Continuous
 62
    94
100
AcDbVertex
100
AcDb2dVertex
 10
9.735299
 20
3.884779
 30
0.0
 70
     8
  0
VERTEX
  5
24E
100
AcDbEntity
  8
lamps
370
    30
390
0
  6
Continuous
 62
    94
100
AcDbVertex
100
AcDb2dVertex
 10
9.91628
 20
3.814672
 30
0.0
 70
     8
  0
VERTEX
  5
24F
100
AcDbEntity
  8
lamps
370
    30
390
0
  6
Continuous
 62
    94
100
AcDbVertex
100
AcDb2dVertex
 10
10.093604
 20
3.729552
 30
0.0
 70
     8
  0
VERTEX
  5
250
100
AcDbEntity
  8
lamps
370
    30
390
0
  6
Continuous
 62
    94
100
AcDbVertex
100
AcDb2dVertex
 10
10.266568
 20
3.629753
 30
0.0
 70
     8
  0
VERTEX
  5
251
100
AcDbEntity
  8
lamps
370
    30
390
0
  6
Continuous
 62
    94
100
AcDbVertex
100
AcDb2dVertex
 10
10.434492
 20
3.515671
 30
0.0
 70
     8
  0
VERTEX
  5
252
100
AcDbEntity
  8
lamps
370
    30
390
0
  6
Continuous
 62
    94
100
AcDbVertex
100
AcDb2dVertex
 10
10.596711
 20
3.387755
 30
0.0
 70
     8
  0
VERTEX
  5
253
100
AcDbEntity
  8
lamps
370
    30
390
0
  6
Continuous
 62
    94
100
AcDbVertex
100
AcDb2dVertex
 10
10.752587
 20
3.246511
 30
0.0
 70
     8
  0
VERTEX
  5
254
100
AcDbEntity
  8
lamps
370
    30
390
0
  6
Continuous
 62
    94
100
AcDbVertex
100
AcDb2dVertex
 10
10.901503
 20
3.092495
 30
0.0
 70
     8
  0
VERTEX
  5
255
100
AcDbEntity
  8
lamps
370
    30
390
0
  6
Continuous
 62
    94
100
AcDbVertex
100
AcDb2dVertex
 10
11.042873
 20
2.926316
 30
0.0
 70
     8
  0
VERTEX
  5
256
100
AcDbEntity
  8
lamps
370
    30
390
0
  6
Continuous
 62
    94
100
AcDbVertex
100
AcDb2dVertex
 10
11.176138
 20
2.748629
 30
0.0
 70
     8
  0
VERTEX
  5
257
100
AcDbEntity
  8
lamps
370
    30
390
0
  6
Continuous
 62
    94
100
AcDbVertex
100
AcDb2dVertex
 10
11.300771
 20
2.560135
 30
0.0
 70
     8
  0
VERTEX
  5
258
100
AcDbEntity
  8
lamps
370
    30
390
0
  6
Continuous
 62
    94
100
AcDbVertex
100
AcDb2dVertex
 10
11.416283
 20
2.361579
 30
0.0
 70
     8
  0
VERTEX
  5
259
100
AcDbEntity
  8
lamps
370
    30
390
0
  6
Continuous
 62
    94
100
AcDbVertex
100
AcDb2dVertex
 10
11.522215
 20
2.153744
 30
0.0
 70
     8
  0
VERTEX
  5
25A
100
AcDbEntity
  8
lamps
370
    30
390
0
  6
Continuous
 62
    94
100
AcDbVertex
100
AcDb2dVertex
 10
11.618151
 20
1.937451
 30
0.0
 70
     8
  0
VERTEX
  5
25B
100
AcDbEntity
  8
lamps
370
    30
390
0
  6
Continuous
 62
    94
100
AcDbVertex
100
AcDb2dVertex
 10
11.703712
 20
1.713552
 30
0.0
 70
     8
  0
VERTEX
  5
25C
100
AcDbEntity
  8
lamps
370
    30
390
0
  6
Continuous
 62
    94
100
AcDbVertex
100
AcDb2dVertex
 10
11.77856
 20
1.482932
 30
0.0
 70
     8
  0
VERTEX
  5
25D
100
AcDbEntity
  8
lamps
370
    30
390
0
  6
Continuous
 62
    94
100
AcDbVertex
100
AcDb2dVertex
 10
11.8424
 20
1.246501
 30
0.0
 70
     8
  0
VERTEX
  5
25E
100
AcDbEntity
  8
lamps
370
    30
390
0
  6
Continuous
 62
    94
100
AcDbVertex
100
AcDb2dVertex
 10
11.894979
 20
1.005191
 30
0.0
 70
     8
  0
VERTEX
  5
25F
100
AcDbEntity
  8
lamps
370
    30
390
0
  6
Continuous
 62
    94
100
AcDbVertex
100
AcDb2dVertex
 10
11.936091
 20
0.759956
 30
0.0
 70
     8
  0
VERTEX
  5
260
100
AcDbEntity
  8
lamps
370
    30
390
0
  6
Continuous
 62
    94
100
AcDbVertex
100
AcDb2dVertex
 10
11.965572
 20
0.511763
 30
0.0
 70
     8
  0
VERTEX
  5
261
100
AcDbEntity
  8
lamps
370
    30
390
0
  6
Continuous
 62
    94
100
AcDbVertex
100
AcDb2dVertex
 10
11.983308
 20
0.261591
 30
0.0
 70
     8
  0
VERTEX
  5
262
100
AcDbEntity
  8
lamps
370
    30
390
0
  6
Continuous
 62
    94
100
AcDbVertex
100
AcDb2dVertex
 10
11.989227
 20
0.010428
 30
0.0
 70
     8
  0
VERTEX
  5
263
100
AcDbEntity
  8
lamps
370
    30
390
0
  6
Continuous
 62
    94
100
AcDbVertex
100
AcDb2dVertex
 10
11.983306
 20
-0.240734
 30
0.0
 70
     8
  0
VERTEX
  5
264
100
AcDbEntity
  8
lamps
370
    30
390
0
  6
Continuous
 62
    94
100
AcDbVertex
100
AcDb2dVertex
 10
11.965569
 20
-0.490906
 30
0.0
 70
     8
  0
VERTEX
  5
265
100
AcDbEntity
  8
lamps
370
    30
390
0
  6
Continuous
 62
    94
100
AcDbVertex
100
AcDb2dVertex
 10
11.936085
 20
-0.739099
 30
0.0
 70
     8
  0
VERTEX
  5
266
100
AcDbEntity
  8
lamps
370
    30
390
0
  6
Continuous
 62
    94
100
AcDbVertex
100
AcDb2dVertex
 10
11.894972
 20
-0.984334
 30
0.0
 70
     8
  0
VERTEX
  5
267
100
AcDbEntity
  8
lamps
370
    30
390
0
  6
Continuous
 62
    94
100
AcDbVertex
100
AcDb2dVertex
 10
11.842391
 20
-1.225642
 30
0.0
 70
     8
  0
VERTEX
  5
268
100
AcDbEntity
  8
lamps
370
    30
390
0
  6
Continuous
 62
    94
100
AcDbVertex
100
AcDb2dVertex
 10
11.77855
 20
-1.462073
 30
0.0
 70
     8
  0
VERTEX
  5
269
100
AcDbEntity
  8
lamps
370
    30
390
0
  6
Continuous
 62
    94
100
AcDbVertex
100
AcDb2dVertex
 10
11.7037
 20
-1.692692
 30
0.0
 70
     8
  0
VERTEX
  5
26A
100
AcDbEntity
  8
lamps
370
    30
390
0
  6
Continuous
 62
    94
100
AcDbVertex
100
AcDb2dVertex
 10
11.618138
 20
-1.916589
 30
0.0
 70
     8
  0
VERTEX
  5
26B
100
AcDbEntity
  8
lamps
370
    30
390
0
  6
Continuous
 62
    94
100
AcDbVertex
100
AcDb2dVertex
 10
11.5222
 20
-2.132882
 30
0.0
 70
     8
  0
VERTEX
  5
26C
100
AcDbEntity
  8
lamps
370
    30
390
0
  6
Continuous
 62
    94
100
AcDbVertex
100
AcDb2dVertex
 10
11.416266
 20
-2.340715
 30
0.0
 70
     8
  0
VERTEX
  5
26D
100
AcDbEntity
  8
lamps
370
    30
390
0
  6
Continuous
 62
    94
100
AcDbVertex
100
AcDb2dVertex
 10
11.300753
 20
-2.53927
 30
0.0
 70
     8
  0
VERTEX
  5
26E
100
AcDbEntity
  8
lamps
370
    30
390
0
  6
Continuous
 62
    94
100
AcDbVertex
100
AcDb2dVertex
 10
11.176118
 20
-2.727762
 30
0.0
 70
     8
  0
VERTEX
  5
26F
100
AcDbEntity
  8
lamps
370
    30
390
0
  6
Continuous
 62
    94
100
AcDbVertex
100
AcDb2dVertex
 10
11.042852
 20
-2.905447
 30
0.0
 70
     8
  0
VERTEX
  5
270
100
AcDbEntity
  8
lamps
370
    30
390
0
  6
Continuous
 62
    94
100
AcDbVertex
100
AcDb2dVertex
 10
10.901481
 20
-3.071624
 30
0.0
 70
     8
  0
VERTEX
  5
271
100
AcDbEntity
  8
lamps
370
    30
390
0
  6
Continuous
 62
    94
100
AcDbVertex
100
AcDb2dVertex
 10
10.752564
 20
-3.225638
 30
0.0
 70
     8
  0
VERTEX
  5
272
100
AcDbEntity
  8
lamps
370
    30
390
0
  6
Continuous
 62
    94
100
AcDbVertex
100
AcDb2dVertex
 10
10.596687
 20
-3.366881
 30
0.0
 70
     8
  0
VERTEX
  5
273
100
AcDbEntity
  8
lamps
370
    30
390
0
  6
Continuous
 62
    94
100
AcDbVertex
100
AcDb2dVertex
 10
10.434467
 20
-3.494795
 30
0.0
 70
     8
  0
VERTEX
  5
274
100
AcDbEntity
  8
lamps
370
    30
390
0
  6
Continuous
 62
    94
100
AcDbVertex
100
AcDb2dVertex
 10
10.266542
 20
-3.608875
 30
0.0
 70
     8
  0
VERTEX
  5
275
100
AcDbEntity
  8
lamps
370
    30
390
0
  6
Continuous
 62
    94
100
AcDbVertex
100
AcDb2dVertex
 10
10.093577
 20
-3.708671
 30
0.0
 70
     8
  0
VERTEX
  5
276
100
AcDbEntity
  8
lamps
370
    30
390
0
  6
Continuous
 62
    94
100
AcDbVertex
100
AcDb2dVertex
 10
9.916253
 20
-3.793789
 30
0.0
 70
     8
  0
VERTEX
  5
277
100
AcDbEntity
  8
lamps
370
    30
390
0
  6
Continuous
 62
    94
100
AcDbVertex
100
AcDb2dVertex
 10
9.735271
 20
-3.863894
 30
0.0
 70
     8
  0
VERTEX
  5
278
100
AcDbEntity
  8
lamps
370
    30
390
0
  6
Continuous
 62
    94
100
AcDbVertex
100
AcDb2dVertex
 10
9.551344
 20
-3.918708
 30
0.0
 70
     8
  0
VERTEX
  5
279
100
AcDbEntity
  8
lamps
370
    30
390
0
  6
Continuous
 62
    94
100
AcDbVertex
100
AcDb2dVertex
 10
9.365199
 20
-3.958016
 30
0.0
 70
     8
  0
VERTEX
  5
27A
100
AcDbEntity
  8
lamps
370
    30
390
0
  6
Continuous
 62
    94
100
AcDbVertex
100
AcDb2dVertex
 10
9.17757
 20
-3.981662
 30
0.0
 70
     8
  0
VERTEX
  5
27B
100
AcDbEntity
  8
lamps
370
    30
390
0
  6
Continuous
 62
    94
100
AcDbVertex
100
AcDb2dVertex
 10
8.989198
 20
-3.989553
 30
0.0
  0
SEQEND
  5
27C
100
AcDbEntity
  8
lamps
370
    30
390
0
  6
Continuous
 62
    94
  0
LINE
  5
27D
100
AcDbEntity
  8
lamps
370
    30
390
0
  6
Continuous
 62
    94
100
AcDbLine
 10
8.989227
 20
-3.989553
 30
0.0
 11
-9.010773
 21
-3.989553
 31
0.0
  0
LINE
  5
27E
100
AcDbEntity
  8
lamps
370
    30
390
0
  6
Continuous
 62
    94
100
AcDbLine
 10
8.989227
 20
4.010447
 30
0.0
 11
-9.010773
 21
4.010447
 31
0.0
  0
ENDBLK
  5
27F
100
AcDbEntity
  8
0
390
0
100
AcDbBlockEnd
  0
BLOCK
  5
291
100
AcDbEntity
  8
0
390
0
100
AcDbBlockBegin
  2
pipe slash
 70
     0
 10
0.0
 20
0.0
 30
0.0
  3
pipe slash
  1

  0
LINE
  5
292
100
AcDbEntity
  8
0
370
     0
390
0
  6
Continuous
 62
     1
100
AcDbLine
 10
0.0
 20
0.0
 30
0.0
 11
1.5
 21
0.0
 31
0.0
  0
LINE
  5
293
100
AcDbEntity
  8
0
370
     0
390
0
  6
Continuous
 62
     1
100
AcDbLine
 10
0.0
 20
0.0
 30
0.0
 11
-1.5
 21
0.0
 31
0.0
  0
LINE
  5
294
100
AcDbEntity
  8
0
370
     0
390
0
  6
Continuous
 62
     1
100
AcDbLine
 10
-1.5
 20
0.0
 30
0.0
 11
-0.178142
 21
-0.308551
 31
0.0
  0
LINE
  5
295
100
AcDbEntity
  8
0
370
     0
390
0
  6
Continuous
 62
     1
100
AcDbLine
 10
1.5
 20
0.0
 30
0.0
 11
0.178142
 21
0.308551
 31
0.0
  0
LINE
  5
296
100
AcDbEntity
  8
0
370
     0
390
0
  6
Continuous
 62
     1
100
AcDbLine
 10
0.178142
 20
0.308551
 30
0.0
 11
3.866252
 21
6.696545
 31
0.0
  0
LINE
  5
297
100
AcDbEntity
  8
0
370
     0
390
0
  6
Continuous
 62
     1
100
AcDbLine
 10
-0.178142
 20
-0.308551
 30
0.0
 11
-3.232051
 21
-5.598076
 31
0.0
  0
ENDBLK
  5
298
100
AcDbEntity
  8
0
390
0
100
AcDbBlockEnd
  0
BLOCK
  5
2AB
100
AcDbEntity
  8
0
390
0
100
AcDbBlockBegin
  2
sightln
 70
     0
 10
0.0
 20
0.0
 30
0.0
  3
sightln
  1

  0
LINE
  5
2AC
100
AcDbEntity
  8
0
370
     0
390
0
  6
Continuous
 62
   134
100
AcDbLine
 10
0.0
 20
0.0
 30
0.0
 11
-6.156372
 21
-16.914459
 31
0.0
  0
LINE
  5
2AD
100
AcDbEntity
  8
0
370
     0
390
0
  6
Continuous
 62
   134
100
AcDbLine
 10
0.0
 20
0.0
 30
0.0
 11
-16.313538
 21
-7.607117
 31
0.0
  0
LINE
  5
2AE
100
AcDbEntity
  8
0
370
     0
390
0
  6
Continuous
 62
   134
100
AcDbLine
 10
0.0
 20
0.0
 30
0.0
 11
0.0
 21
0.0
 31
0.0
  0
ARC
  5
2AF
100
AcDbEntity
  8
0
370
     0
390
0
  6
Continuous
 62
   134
100
AcDbCircle
 10
0.002204
 20
-0.040985
 30
0.0
 40
14.966824
100
AcDbArc
 50
204.949623
 51
249.59065
  0
ENDBLK
  5
2B0
100
AcDbEntity
  8
0
390
0
100
AcDbBlockEnd
  0
BLOCK
  5
2BD
100
AcDbEntity
  8
0
390
0
100
AcDbBlockBegin
  2
arrwhead
 70
     0
 10
0.0
 20
0.0
 30
0.0
  3
arrwhead
  1

  0
POLYLINE
  5
2BE
100
AcDbEntity
  8
hidden positions
370
     0
390
0
  6
Continuous
 62
   134
100
AcDb2dPolyline
 66
     1
 10
0.0
 20
0.0
 30
0.0
 70
   129
  0
VERTEX
  5
2BF
100
AcDbEntity
  8
hidden positions
370
     0
390
0
  6
Continuous
 62
   134
100
AcDbVertex
100
AcDb2dVertex
 10
1.0
 20
0.0
 30
0.0
  0
VERTEX
  5
2C0
100
AcDbEntity
  8
hidden positions
370
     0
390
0
  6
Continuous
 62
   134
100
AcDbVertex
100
AcDb2dVertex
 10
0.0
 20
-1.0
 30
0.0
  0
VERTEX
  5
2C1
100
AcDbEntity
  8
hidden positions
370
     0
390
0
  6
Continuous
 62
   134
100
AcDbVertex
100
AcDb2dVertex
 10
0.0
 20
1.0
 30
0.0
  0
VERTEX
  5
2C2
100
AcDbEntity
  8
hidden positions
370
     0
390
0
  6
Continuous
 62
   134
100
AcDbVertex
100
AcDb2dVertex
 10
1.0
 20
0.0
 30
0.0
  0
SEQEND
  5
2C3
100
AcDbEntity
  8
hidden positions
370
     0
390
0
  6
Continuous
 62
   134
  0
HATCH
  5
2C4
100
AcDbEntity
  8
hidden positions
370
     0
390
0
  6
Continuous
 62
   134
100
AcDbHatch
 10
0.0
 20
0.0
 30
0.0
210
0.0
220
0.0
230
1.0
  2
SOLID
 70
     1
 71
     0
 91
        1
 92
        1
 93
        3
 72
     1
 10
1.0
 20
0.0
 11
0.0
 21
-1.0
 72
     1
 10
0.0
 20
-1.0
 11
0.0
 21
1.0
 72
     1
 10
0.0
 20
1.0
 11
1.0
 21
0.0
 97
        0
 75
     0
 76
     1
 98
        1
 10
0.0
 20
0.0
  0
ENDBLK
  5
2C5
100
AcDbEntity
  8
0
390
0
100
AcDbBlockEnd
  0
ENDSEC
  0
SECTION
  2
ENTITIES
  0
VIEWPORT
  5
45
100
AcDbEntity
 67
     1
  8
0
390
0
  6
Continuous
 62
     0
100
AcDbViewport
 10
4.5
 20
3.259162
 30
0.0
 40
12.857143
 41
9.311892
 68
     1
 69
     1
 12
762.9316
 22
546.5183
 13
1169.457242
 23
377.488
 14
0.5
 24
0.5
 15
12.0
 25
12.0
 16
0.0
 26
0.0
 36
1.0
 17
0.0
 27
0.0
 37
0.0
 42
50.0
 43
-55.0
 44
-55.0
 45
1084.5
 50
0.0
 51
0.0
 72
   500
 90
        0
340
0
  1

281
     0
 71
     1
 74
     0
110
0.0
120
0.0
130
0.0
111
1.0
121
0.0
131
0.0
112
0.0
122
1.0
132
0.0
345
0
346
0
 79
     0
146
0.0
  0
ARC
  5
46
100
AcDbEntity
  8
border
370
     0
390
0
  6
Continuous
 62
   174
100
AcDbCircle
 10
-700.110743
 20
-999.062589
 30
0.0
 40
7.59375
100
AcDbArc
 50
180.0
 51
270.0
  0
ARC
  5
47
100
AcDbEntity
  8
border
370
     0
390
0
  6
Continuous
 62
   174
100
AcDbCircle
 10
-705.173243
 20
-988.937589
 30
0.0
 40
10.125
100
AcDbArc
 50
180.0
 51
270.0
  0
ARC
  5
48
100
AcDbEntity
  8
border
370
    30
390
0
  6
Continuous
 62
    14
100
AcDbCircle
 10
-700.110743
 20
-999.062589
 30
0.0
 40
10.125
100
AcDbArc
 50
180.0
 51
270.0
  0
ARC
  5
49
100
AcDbEntity
  8
border
370
    30
390
0
  6
Continuous
 62
    14
100
AcDbCircle
 10
-705.173243
 20
-988.937589
 30
0.0
 40
12.65625
100
AcDbArc
 50
180.0
 51
270.0
  0
ARC
  5
4A
100
AcDbEntity
  8
border
370
     0
390
0
  6
Continuous
 62
   174
100
AcDbCircle
 10
-700.110738
 20
-515.396979
 30
0.0
 40
7.59375
100
AcDbArc
 50
90.0
 51
180.0
  0
ARC
  5
4B
100
AcDbEntity
  8
border
370
    30
390
0
  6
Continuous
 62
    14
100
AcDbCircle
 10
-700.110738
 20
-515.396979
 30
0.0
 40
10.125
100
AcDbArc
 50
90.0
 51
180.0
  0
ARC
  5
4C
100
AcDbEntity
  8
border
370
     0
390
0
  6
Continuous
 62
   174
100
AcDbCircle
 10
-705.173238
 20
-525.330423
 30
0.0
 40
10.125
100
AcDbArc
 50
90.0
 51
180.0
  0
ARC
  5
4D
100
AcDbEntity
  8
border
370
    30
390
0
  6
Continuous
 62
    14
100
AcDbCircle
 10
-705.173238
 20
-525.330423
 30
0.0
 40
12.65625
100
AcDbArc
 50
90.0
 51
180.0
  0
LINE
  5
4E
100
AcDbEntity
  8
border
370
     0
390
0
  6
Continuous
 62
   174
100
AcDbLine
 10
-707.704493
 20
-999.062589
 30
0.0
 11
-707.704488
 21
-515.396979
 31
0.0
  0
LINE
  5
4F
100
AcDbEntity
  8
border
370
    30
390
0
  6
Continuous
 62
    14
100
AcDbLine
 10
-710.235743
 20
-999.093683
 30
0.0
 11
-710.235738
 21
-515.396979
 31
0.0
  0
LINE
  5
50
100
AcDbEntity
  8
border
370
     0
390
0
  6
Continuous
 62
   174
100
AcDbLine
 10
-715.298243
 20
-988.937589
 30
0.0
 11
-715.298238
 21
-525.330423
 31
0.0
  0
LINE
  5
51
100
AcDbEntity
  8
border
370
    30
390
0
  6
Continuous
 62
    14
100
AcDbLine
 10
-717.829493
 20
-988.937589
 30
0.0
 11
-717.829488
 21
-525.330423
 31
0.0
  0
LINE
  5
52
100
AcDbEntity
  8
border
370
     0
390
0
  6
DOT
 62
    54
100
AcDbLine
 10
-741.829493
 20
-988.937589
 30
0.0
 11
-741.829488
 21
-525.330423
 31
0.0
  0
ARC
  5
53
100
AcDbEntity
  8
border
370
     0
390
0
  6
Continuous
 62
   174
100
AcDbCircle
 10
44.604013
 20
-999.093683
 30
0.0
 40
7.59375
100
AcDbArc
 50
270.0
 51
360.0
  0
ARC
  5
54
100
AcDbEntity
  8
border
370
     0
390
0
  6
Continuous
 62
   174
100
AcDbCircle
 10
49.51426
 20
-988.968683
 30
0.0
 40
10.125
100
AcDbArc
 50
270.0
 51
360.0
  0
ARC
  5
55
100
AcDbEntity
  8
border
370
    30
390
0
  6
Continuous
 62
    14
100
AcDbCircle
 10
44.604013
 20
-999.093683
 30
0.0
 40
10.125
100
AcDbArc
 50
270.0
 51
360.0
  0
ARC
  5
56
100
AcDbEntity
  8
border
370
    30
390
0
  6
Continuous
 62
    14
100
AcDbCircle
 10
49.51426
 20
-988.968683
 30
0.0
 40
12.65625
100
AcDbArc
 50
270.0
 51
360.0
  0
ARC
  5
57
100
AcDbEntity
  8
border
370
     0
390
0
  6
Continuous
 62
   174
100
AcDbCircle
 10
44.604013
 20
-515.328226
 30
0.0
 40
7.59375
100
AcDbArc
 50
0.0
 51
90.0
  0
ARC
  5
58
100
AcDbEntity
  8
border
370
     0
390
0
  6
Continuous
 62
   174
100
AcDbCircle
 10
49.51426
 20
-525.305172
 30
0.0
 40
10.125
100
AcDbArc
 50
0.0
 51
90.0
  0
ARC
  5
59
100
AcDbEntity
  8
border
370
    30
390
0
  6
Continuous
 62
    14
100
AcDbCircle
 10
49.51426
 20
-525.305172
 30
0.0
 40
12.65625
100
AcDbArc
 50
0.0
 51
90.0
  0
ARC
  5
5A
100
AcDbEntity
  8
border
370
    30
390
0
  6
Continuous
 62
    14
100
AcDbCircle
 10
44.604013
 20
-515.328226
 30
0.0
 40
10.125
100
AcDbArc
 50
360.0
 51
450.0
  0
LINE
  5
5B
100
AcDbEntity
  8
border
370
    30
390
0
  6
Continuous
 62
    14
100
AcDbLine
 10
62.17051
 20
-988.968683
 30
0.0
 11
62.17051
 21
-525.305172
 31
0.0
  0
LINE
  5
5C
100
AcDbEntity
  8
border
370
     0
390
0
  6
Continuous
 62
   174
100
AcDbLine
 10
59.63926
 20
-988.968683
 30
0.0
 11
59.63926
 21
-525.305172
 31
0.0
  0
LINE
  5
5D
100
AcDbEntity
  8
border
370
     0
390
0
  6
Continuous
 62
   174
100
AcDbLine
 10
52.197763
 20
-999.093683
 30
0.0
 11
52.197763
 21
-515.328226
 31
0.0
  0
LINE
  5
5E
100
AcDbEntity
  8
border
370
    30
390
0
  6
Continuous
 62
    14
100
AcDbLine
 10
54.729013
 20
-999.093683
 30
0.0
 11
54.729013
 21
-515.328226
 31
0.0
  0
LINE
  5
5F
100
AcDbEntity
  8
border
370
     0
390
0
  6
Continuous
 62
   174
100
AcDbLine
 10
-705.173243
 20
-999.093683
 30
0.0
 11
49.51426
 21
-999.093683
 31
0.0
  0
LINE
  5
60
100
AcDbEntity
  8
border
370
    30
390
0
  6
Continuous
 62
    14
100
AcDbLine
 10
-705.173243
 20
-1001.624933
 30
0.0
 11
49.51426
 21
-1001.624933
 31
0.0
  0
LINE
  5
61
100
AcDbEntity
  8
border
370
     0
390
0
  6
Continuous
 62
   174
100
AcDbLine
 10
-700.110743
 20
-1006.656339
 30
0.0
 11
44.604013
 21
-1006.687433
 31
0.0
  0
LINE
  5
62
100
AcDbEntity
  8
border
370
    30
390
0
  6
Continuous
 62
    14
100
AcDbLine
 10
-700.110743
 20
-1009.187589
 30
0.0
 11
44.604013
 21
-1009.218683
 31
0.0
  0
LINE
  5
63
100
AcDbEntity
  8
border
370
     0
390
0
  6
Continuous
 62
   174
100
AcDbLine
 10
-705.173238
 20
-515.205423
 30
0.0
 11
49.51426
 21
-515.180172
 31
0.0
  0
LINE
  5
64
100
AcDbEntity
  8
border
370
    30
390
0
  6
Continuous
 62
    14
100
AcDbLine
 10
-705.173238
 20
-512.674173
 30
0.0
 11
49.51426
 21
-512.648922
 31
0.0
  0
LINE
  5
65
100
AcDbEntity
  8
border
370
     0
390
0
  6
Continuous
 62
   174
100
AcDbLine
 10
-700.110738
 20
-507.803229
 30
0.0
 11
44.604013
 21
-507.734476
 31
0.0
  0
LINE
  5
66
100
AcDbEntity
  8
border
370
    30
390
0
  6
Continuous
 62
    14
100
AcDbLine
 10
-700.110738
 20
-505.271979
 30
0.0
 11
44.604013
 21
-505.203226
 31
0.0
  0
LINE
  5
67
100
AcDbEntity
  8
0
370
     0
390
0
  6
Continuous
 62
    94
100
AcDbLine
 10
-320.354163
 20
-526.30876
 30
0.0
 11
-318.354163
 21
-526.30876
 31
0.0
  0
LINE
  5
68
100
AcDbEntity
  8
0
370
     0
390
0
  6
Continuous
 62
    94
100
AcDbLine
 10
-411.354163
 20
-526.30876
 30
0.0
 11
-413.354163
 21
-526.30876
 31
0.0
  0
LINE
  5
69
100
AcDbEntity
  8
0
370
     0
390
0
  6
Continuous
 62
    94
100
AcDbLine
 10
-217.581933
 20
-563.296598
 30
0.0
 11
-215.714686
 21
-564.013109
 31
0.0
  0
LINE
  5
6A
100
AcDbEntity
  8
0
370
     0
390
0
  6
Continuous
 62
    94
100
AcDbLine
 10
-514.126394
 20
-563.296598
 30
0.0
 11
-515.993641
 21
-564.013109
 31
0.0
  0
LINE
  5
6B
100
AcDbEntity
  8
0
370
     0
390
0
  6
Continuous
 62
    94
100
AcDbLine
 10
-135.113085
 20
-634.882211
 30
0.0
 11
-133.631548
 21
-636.225733
 31
0.0
  0
LINE
  5
6C
100
AcDbEntity
  8
0
370
     0
390
0
  6
Continuous
 62
    94
100
AcDbLine
 10
-596.595242
 20
-634.882211
 30
0.0
 11
-598.076778
 21
-636.225733
 31
0.0
  0
LINE
  5
6D
100
AcDbEntity
  8
0
370
     0
390
0
  6
Continuous
 62
    94
100
AcDbLine
 10
-647.57894
 20
-731.454844
 30
0.0
 11
-648.47405
 21
-733.243357
 31
0.0
  0
LINE
  5
6E
100
AcDbEntity
  8
0
370
     0
390
0
  6
Continuous
 62
    94
100
AcDbLine
 10
-660.006709
 20
-839.940243
 30
0.0
 11
-660.194123
 21
-841.931443
 31
0.0
  0
LINE
  5
6F
100
AcDbEntity
  8
0
370
     0
390
0
  6
Continuous
 62
    94
100
AcDbLine
 10
-411.354163
 20
-522.55876
 30
0.0
 11
-411.354163
 21
-526.30876
 31
0.0
  0
LINE
  5
70
100
AcDbEntity
  8
0
370
     0
390
0
  6
Continuous
 62
    94
100
AcDbLine
 10
-216.238474
 20
-559.795509
 30
0.0
 11
-217.581933
 21
-563.296598
 31
0.0
  0
LINE
  5
71
100
AcDbEntity
  8
0
370
     0
390
0
  6
Continuous
 62
    94
100
AcDbLine
 10
-515.469852
 20
-559.795509
 30
0.0
 11
-514.126394
 21
-563.296598
 31
0.0
  0
LINE
  5
72
100
AcDbEntity
  8
0
370
     0
390
0
  6
Continuous
 62
    94
100
AcDbLine
 10
-132.593982
 20
-632.10433
 30
0.0
 11
-135.113085
 21
-634.882211
 31
0.0
  0
LINE
  5
73
100
AcDbEntity
  8
0
370
     0
390
0
  6
Continuous
 62
    94
100
AcDbLine
 10
-599.114344
 20
-632.10433
 30
0.0
 11
-596.595242
 21
-634.882211
 31
0.0
  0
LINE
  5
74
100
AcDbEntity
  8
0
370
     0
390
0
  6
Continuous
 62
    94
100
AcDbLine
 10
-650.932402
 20
-729.776514
 30
0.0
 11
-647.57894
 21
-731.454844
 31
0.0
  0
LINE
  5
75
100
AcDbEntity
  8
0
370
     0
390
0
  6
Continuous
 62
    94
100
AcDbLine
 10
-663.740208
 20
-839.588842
 30
0.0
 11
-660.006709
 21
-839.940243
 31
0.0
  0
LINE
  5
76
100
AcDbEntity
  8
0
370
     0
390
0
  6
Continuous
 62
    94
100
AcDbLine
 10
-318.354163
 20
-526.30876
 30
0.0
 11
-318.354163
 21
-528.30876
 31
0.0
  0
LINE
  5
77
100
AcDbEntity
  8
0
370
     0
390
0
  6
Continuous
 62
    94
100
AcDbLine
 10
-413.354163
 20
-526.30876
 30
0.0
 11
-413.354163
 21
-528.30876
 31
0.0
  0
LINE
  5
78
100
AcDbEntity
  8
0
370
     0
390
0
  6
Continuous
 62
    94
100
AcDbLine
 10
-215.714686
 20
-564.013109
 30
0.0
 11
-216.431197
 21
-565.880356
 31
0.0
  0
LINE
  5
79
100
AcDbEntity
  8
0
370
     0
390
0
  6
Continuous
 62
    94
100
AcDbLine
 10
-515.993641
 20
-564.013109
 30
0.0
 11
-515.27713
 21
-565.880356
 31
0.0
  0
LINE
  5
7A
100
AcDbEntity
  8
0
370
     0
390
0
  6
Continuous
 62
    94
100
AcDbLine
 10
-133.631548
 20
-636.225733
 30
0.0
 11
-134.97507
 21
-637.707269
 31
0.0
  0
LINE
  5
7B
100
AcDbEntity
  8
0
370
     0
390
0
  6
Continuous
 62
    94
100
AcDbLine
 10
-598.076778
 20
-636.225733
 30
0.0
 11
-596.733257
 21
-637.707269
 31
0.0
  0
LINE
  5
7C
100
AcDbEntity
  8
0
370
     0
390
0
  6
Continuous
 62
    94
100
AcDbLine
 10
-648.47405
 20
-733.243357
 30
0.0
 11
-646.685536
 21
-734.138466
 31
0.0
  0
LINE
  5
7D
100
AcDbEntity
  8
0
370
     0
390
0
  6
Continuous
 62
    94
100
AcDbLine
 10
-660.194123
 20
-841.931443
 30
0.0
 11
-658.202923
 21
-842.118857
 31
0.0
  0
LINE
  5
7E
100
AcDbEntity
  8
0
370
     0
390
0
  6
Continuous
 62
    94
100
AcDbLine
 10
-302.854163
 20
-526.55876
 30
0.0
 11
-216.238474
 21
-559.795509
 31
0.0
  0
LINE
  5
7F
100
AcDbEntity
  8
0
370
     0
390
0
  6
Continuous
 62
    94
100
AcDbLine
 10
-428.854163
 20
-526.55876
 30
0.0
 11
-515.469852
 21
-559.795509
 31
0.0
  0
LINE
  5
80
100
AcDbEntity
  8
hidden positions
370
     0
390
0
  6
DOT
 62
    54
100
AcDbLine
 10
-301.779395
 20
-523.75789
 30
0.0
 11
-215.163706
 21
-556.994639
 31
0.0
  0
LINE
  5
81
100
AcDbEntity
  8
hidden positions
370
     0
390
0
100
AcDbLine
 10
-429.928932
 20
-523.75789
 30
0.0
 11
-516.54462
 21
-556.994639
 31
0.0
  0
LINE
  5
82
100
AcDbEntity
  8
hidden positions
370
     0
390
0
  6
DOT
 62
    54
100
AcDbLine
 10
-302.137651
 20
-524.691513
 30
0.0
 11
-215.521962
 21
-557.928263
 31
0.0
  0
LINE
  5
83
100
AcDbEntity
  8
hidden positions
370
     0
390
0
100
AcDbLine
 10
-429.570676
 20
-524.691513
 30
0.0
 11
-516.186364
 21
-557.928263
 31
0.0
  0
LINE
  5
84
100
AcDbEntity
  8
hidden positions
370
     0
390
0
  6
DOT
 62
    54
100
AcDbLine
 10
-302.495907
 20
-525.625137
 30
0.0
 11
-215.880218
 21
-558.861886
 31
0.0
  0
LINE
  5
85
100
AcDbEntity
  8
hidden positions
370
     0
390
0
100
AcDbLine
 10
-429.212419
 20
-525.625137
 30
0.0
 11
-515.828108
 21
-558.861886
 31
0.0
  0
LINE
  5
86
100
AcDbEntity
  8
0
370
     0
390
0
  6
Continuous
 62
    94
100
AcDbLine
 10
-201.333084
 20
-569.799475
 30
0.0
 11
-132.593982
 21
-632.10433
 31
0.0
  0
LINE
  5
87
100
AcDbEntity
  8
0
370
     0
390
0
  6
Continuous
 62
    94
100
AcDbLine
 10
-530.375243
 20
-569.799475
 30
0.0
 11
-599.114344
 21
-632.10433
 31
0.0
  0
LINE
  5
88
100
AcDbEntity
  8
hidden positions
370
     0
390
0
  6
DOT
 62
    54
100
AcDbLine
 10
-199.318347
 20
-567.576676
 30
0.0
 11
-130.579246
 21
-629.881531
 31
0.0
  0
LINE
  5
89
100
AcDbEntity
  8
hidden positions
370
     0
390
0
  6
DOT
 62
    54
100
AcDbLine
 10
-532.389979
 20
-567.576676
 30
0.0
 11
-601.129081
 21
-629.881531
 31
0.0
  0
LINE
  5
8A
100
AcDbEntity
  8
hidden positions
370
     0
390
0
  6
DOT
 62
    54
100
AcDbLine
 10
-199.989926
 20
-568.317609
 30
0.0
 11
-131.250825
 21
-630.622464
 31
0.0
  0
LINE
  5
8B
100
AcDbEntity
  8
hidden positions
370
     0
390
0
  6
DOT
 62
    54
100
AcDbLine
 10
-531.7184
 20
-568.317609
 30
0.0
 11
-600.457502
 21
-630.622464
 31
0.0
  0
LINE
  5
8C
100
AcDbEntity
  8
hidden positions
370
     0
390
0
  6
DOT
 62
    54
100
AcDbLine
 10
-200.661505
 20
-569.058542
 30
0.0
 11
-131.922404
 21
-631.363397
 31
0.0
  0
LINE
  5
8D
100
AcDbEntity
  8
hidden positions
370
     0
390
0
  6
DOT
 62
    54
100
AcDbLine
 10
-531.046821
 20
-569.058542
 30
0.0
 11
-599.785923
 21
-631.363397
 31
0.0
  0
LINE
  5
8E
100
AcDbEntity
  8
0
370
     0
390
0
  6
Continuous
 62
    94
100
AcDbLine
 10
-122.317581
 20
-646.823215
 30
0.0
 11
-80.775924
 21
-729.776514
 31
0.0
  0
LINE
  5
8F
100
AcDbEntity
  8
0
370
     0
390
0
  6
Continuous
 62
    94
100
AcDbLine
 10
-609.390746
 20
-646.823215
 30
0.0
 11
-650.932402
 21
-729.776514
 31
0.0
  0
LINE
  5
90
100
AcDbEntity
  8
hidden positions
370
     0
390
0
  6
DOT
 62
    54
100
AcDbLine
 10
-119.63514
 20
-645.479893
 30
0.0
 11
-78.093484
 21
-728.433192
 31
0.0
  0
LINE
  5
91
100
AcDbEntity
  8
hidden positions
370
     0
390
0
  6
DOT
 62
    54
100
AcDbLine
 10
-612.073186
 20
-645.479893
 30
0.0
 11
-653.614843
 21
-728.433192
 31
0.0
  0
LINE
  5
92
100
AcDbEntity
  8
hidden positions
370
     0
390
0
  6
DOT
 62
    54
100
AcDbLine
 10
-120.529287
 20
-645.927667
 30
0.0
 11
-78.987631
 21
-728.880966
 31
0.0
  0
LINE
  5
93
100
AcDbEntity
  8
hidden positions
370
     0
390
0
  6
DOT
 62
    54
100
AcDbLine
 10
-611.179039
 20
-645.927667
 30
0.0
 11
-652.720696
 21
-728.880966
 31
0.0
  0
LINE
  5
94
100
AcDbEntity
  8
hidden positions
370
     0
390
0
  6
DOT
 62
    54
100
AcDbLine
 10
-121.423434
 20
-646.375441
 30
0.0
 11
-79.881777
 21
-729.32874
 31
0.0
  0
LINE
  5
95
100
AcDbEntity
  8
hidden positions
370
     0
390
0
  6
DOT
 62
    54
100
AcDbLine
 10
-610.284893
 20
-646.375441
 30
0.0
 11
-651.826549
 21
-729.32874
 31
0.0
  0
LINE
  5
96
100
AcDbEntity
  8
0
370
     0
390
0
  6
Continuous
 62
    94
100
AcDbLine
 10
-76.684322
 20
-747.225501
 30
0.0
 11
-67.968118
 21
-839.588842
 31
0.0
  0
LINE
  5
97
100
AcDbEntity
  8
hidden positions
370
     0
390
0
  6
DOT
 62
    54
100
AcDbLine
 10
-73.697591
 20
-746.943647
 30
0.0
 11
-64.981388
 21
-839.306988
 31
0.0
  0
LINE
  5
98
100
AcDbEntity
  8
hidden positions
370
     0
390
0
  6
DOT
 62
    54
100
AcDbLine
 10
-658.010735
 20
-746.943647
 30
0.0
 11
-666.726939
 21
-839.306988
 31
0.0
  0
LINE
  5
99
100
AcDbEntity
  8
hidden positions
370
     0
390
0
  6
DOT
 62
    54
100
AcDbLine
 10
-74.693168
 20
-747.037598
 30
0.0
 11
-65.976964
 21
-839.40094
 31
0.0
  0
LINE
  5
9A
100
AcDbEntity
  8
hidden positions
370
     0
390
0
  6
DOT
 62
    54
100
AcDbLine
 10
-657.015158
 20
-747.037598
 30
0.0
 11
-665.731362
 21
-839.40094
 31
0.0
  0
LINE
  5
9B
100
AcDbEntity
  8
hidden positions
370
     0
390
0
  6
DOT
 62
    54
100
AcDbLine
 10
-75.688745
 20
-747.131549
 30
0.0
 11
-66.972541
 21
-839.494891
 31
0.0
  0
LINE
  5
9C
100
AcDbEntity
  8
hidden positions
370
     0
390
0
  6
DOT
 62
    54
100
AcDbLine
 10
-656.019581
 20
-747.131549
 30
0.0
 11
-664.735785
 21
-839.494891
 31
0.0
  0
LINE
  5
9D
100
AcDbEntity
  8
0
370
     0
390
0
  6
Continuous
 62
    94
100
AcDbLine
 10
-302.854163
 20
-526.55876
 30
0.0
 11
-304.197624
 21
-530.059847
 31
0.0
  0
LINE
  5
9E
100
AcDbEntity
  8
0
370
     0
390
0
  6
Continuous
 62
    94
100
AcDbLine
 10
-428.854163
 20
-526.55876
 30
0.0
 11
-427.510703
 21
-530.059847
 31
0.0
  0
LINE
  5
9F
100
AcDbEntity
  8
0
370
     0
390
0
  6
Continuous
 62
    94
100
AcDbLine
 10
-530.375243
 20
-569.799475
 30
0.0
 11
-527.866672
 21
-572.586871
 31
0.0
  0
LINE
  5
A0
100
AcDbEntity
  8
0
370
     0
390
0
  6
Continuous
 62
    94
100
AcDbLine
 10
-122.317581
 20
-646.823215
 30
0.0
 11
-125.664667
 21
-648.514225
 31
0.0
  0
LINE
  5
A1
100
AcDbEntity
  8
0
370
     0
390
0
  6
Continuous
 62
    94
100
AcDbLine
 10
-609.390746
 20
-646.823215
 30
0.0
 11
-606.04366
 21
-648.514225
 31
0.0
  0
LINE
  5
A2
100
AcDbEntity
  8
0
370
     0
390
0
  6
Continuous
 62
    94
100
AcDbLine
 10
-655.024005
 20
-747.225501
 30
0.0
 11
-651.291862
 21
-747.59103
 31
0.0
  0
LINE
  5
A3
100
AcDbEntity
  8
0
370
     0
390
0
  6
Continuous
 62
    94
100
AcDbLine
 10
-661.39768
 20
-857.386667
 30
0.0
 11
-657.786107
 21
-856.377194
 31
0.0
  0
LINE
  5
A4
100
AcDbEntity
  8
0
370
     0
390
0
  6
Continuous
 62
    94
100
AcDbLine
 10
-427.510703
 20
-530.059847
 30
0.0
 11
-425.643456
 21
-529.343335
 31
0.0
  0
LINE
  5
A5
100
AcDbEntity
  8
0
370
     0
390
0
  6
Continuous
 62
    94
100
AcDbLine
 10
-527.866672
 20
-572.586871
 30
0.0
 11
-526.494559
 21
-571.131775
 31
0.0
  0
LINE
  5
A6
100
AcDbEntity
  8
0
370
     0
390
0
  6
Continuous
 62
    94
100
AcDbLine
 10
-125.664667
 20
-648.514225
 30
0.0
 11
-126.417398
 21
-646.661283
 31
0.0
  0
LINE
  5
A7
100
AcDbEntity
  8
0
370
     0
390
0
  6
Continuous
 62
    94
100
AcDbLine
 10
-606.04366
 20
-648.514225
 30
0.0
 11
-605.290928
 21
-646.661283
 31
0.0
  0
LINE
  5
A8
100
AcDbEntity
  8
0
370
     0
390
0
  6
Continuous
 62
    94
100
AcDbLine
 10
-651.291862
 20
-747.59103
 30
0.0
 11
-651.260491
 21
-745.591276
 31
0.0
  0
LINE
  5
A9
100
AcDbEntity
  8
0
370
     0
390
0
  6
Continuous
 62
    94
100
AcDbLine
 10
-657.786107
 20
-856.377194
 30
0.0
 11
-658.480346
 21
-854.501552
 31
0.0
  0
LINE
  5
AA
100
AcDbEntity
  8
0
370
     0
390
0
  6
Continuous
 62
    94
100
AcDbLine
 10
-425.643456
 20
-529.343335
 30
0.0
 11
-424.926944
 21
-531.210582
 31
0.0
  0
LINE
  5
AB
100
AcDbEntity
  8
0
370
     0
390
0
  6
Continuous
 62
    94
100
AcDbLine
 10
-526.380061
 20
-571.248967
 30
0.0
 11
-525.042157
 21
-572.735578
 31
0.0
  0
LINE
  5
AC
100
AcDbEntity
  8
0
370
     0
390
0
  6
Continuous
 62
    94
100
AcDbLine
 10
-605.141788
 20
-646.729113
 30
0.0
 11
-603.356675
 21
-647.630985
 31
0.0
  0
LINE
  5
AD
100
AcDbEntity
  8
0
370
     0
390
0
  6
Continuous
 62
    94
100
AcDbLine
 10
-651.260491
 20
-745.591276
 30
0.0
 11
-649.270015
 21
-745.786225
 31
0.0
  0
LINE
  5
AE
100
AcDbEntity
  8
0
370
     0
390
0
  6
Continuous
 62
    94
100
AcDbLine
 10
-658.324492
 20
-854.451021
 30
0.0
 11
-656.39832
 21
-853.912636
 31
0.0
  0
POLYLINE
  5
AF
100
AcDbEntity
  8
0
370
     0
390
0
  6
Continuous
 62
    94
100
AcDb2dPolyline
 66
     1
 10
0.0
 20
0.0
 30
0.0
 70
   128
  0
VERTEX
  5
B0
100
AcDbEntity
  8
0
370
     0
390
0
  6
Continuous
 62
    94
100
AcDbVertex
100
AcDb2dVertex
 10
-413.354163
 20
-528.30876
 30
0.0
  0
VERTEX
  5
B1
100
AcDbEntity
  8
0
370
     0
390
0
  6
Continuous
 62
    94
100
AcDbVertex
100
AcDb2dVertex
 10
-419.38377
 20
-528.789699
 30
0.0
  0
VERTEX
  5
B2
100
AcDbEntity
  8
0
370
     0
390
0
  6
Continuous
 62
    94
100
AcDbVertex
100
AcDb2dVertex
 10
-424.926944
 20
-531.210582
 30
0.0
  0
SEQEND
  5
B3
100
AcDbEntity
  8
0
370
     0
390
0
  6
Continuous
 62
    94
  0
POLYLINE
  5
B4
100
AcDbEntity
  8
0
370
     0
390
0
  6
Continuous
 62
    94
100
AcDb2dPolyline
 66
     1
 10
0.0
 20
0.0
 30
0.0
 70
   128
  0
VERTEX
  5
B5
100
AcDbEntity
  8
0
370
     0
390
0
  6
Continuous
 62
    94
100
AcDbVertex
100
AcDb2dVertex
 10
-216.431197
 20
-565.880356
 30
0.0
  0
VERTEX
  5
B6
100
AcDbEntity
  8
0
370
     0
390
0
  6
Continuous
 62
    94
100
AcDbVertex
100
AcDb2dVertex
 10
-210.974113
 20
-568.489511
 30
0.0
  0
VERTEX
  5
B7
100
AcDbEntity
  8
0
370
     0
390
0
  6
Continuous
 62
    94
100
AcDbVertex
100
AcDb2dVertex
 10
-206.66617
 20
-572.735578
 30
0.0
  0
SEQEND
  5
B8
100
AcDbEntity
  8
0
370
     0
390
0
  6
Continuous
 62
    94
  0
POLYLINE
  5
B9
100
AcDbEntity
  8
0
370
     0
390
0
  6
Continuous
 62
    94
100
AcDb2dPolyline
 66
     1
 10
0.0
 20
0.0
 30
0.0
 70
   128
  0
VERTEX
  5
BA
100
AcDbEntity
  8
0
370
     0
390
0
  6
Continuous
 62
    94
100
AcDbVertex
100
AcDb2dVertex
 10
-515.27713
 20
-565.880356
 30
0.0
  0
VERTEX
  5
BB
100
AcDbEntity
  8
0
370
     0
390
0
  6
Continuous
 62
    94
100
AcDbVertex
100
AcDb2dVertex
 10
-520.734214
 20
-568.489511
 30
0.0
  0
VERTEX
  5
BC
100
AcDbEntity
  8
0
370
     0
390
0
  6
Continuous
 62
    94
100
AcDbVertex
100
AcDb2dVertex
 10
-525.042157
 20
-572.735578
 30
0.0
  0
SEQEND
  5
BD
100
AcDbEntity
  8
0
370
     0
390
0
  6
Continuous
 62
    94
  0
POLYLINE
  5
BE
100
AcDbEntity
  8
0
370
     0
390
0
  6
Continuous
 62
    94
100
AcDb2dPolyline
 66
     1
 10
0.0
 20
0.0
 30
0.0
 70
   128
  0
VERTEX
  5
BF
100
AcDbEntity
  8
0
370
     0
390
0
  6
Continuous
 62
    94
100
AcDbVertex
100
AcDb2dVertex
 10
-596.733257
 20
-637.707269
 30
0.0
  0
VERTEX
  5
C0
100
AcDbEntity
  8
0
370
     0
390
0
  6
Continuous
 62
    94
100
AcDbVertex
100
AcDb2dVertex
 10
-600.876722
 20
-642.113986
 30
0.0
  0
VERTEX
  5
C1
100
AcDbEntity
  8
0
370
     0
390
0
  6
Continuous
 62
    94
100
AcDbVertex
100
AcDb2dVertex
 10
-603.356675
 20
-647.630985
 30
0.0
  0
SEQEND
  5
C2
100
AcDbEntity
  8
0
370
     0
390
0
  6
Continuous
 62
    94
  0
POLYLINE
  5
C3
100
AcDbEntity
  8
0
370
     0
390
0
  6
Continuous
 62
    94
100
AcDb2dPolyline
 66
     1
 10
0.0
 20
0.0
 30
0.0
 70
   128
  0
VERTEX
  5
C4
100
AcDbEntity
  8
0
370
     0
390
0
  6
Continuous
 62
    94
100
AcDbVertex
100
AcDb2dVertex
 10
-646.685536
 20
-734.138466
 30
0.0
  0
VERTEX
  5
C5
100
AcDbEntity
  8
0
370
     0
390
0
  6
Continuous
 62
    94
100
AcDbVertex
100
AcDb2dVertex
 10
-648.954032
 20
-739.745728
 30
0.0
  0
VERTEX
  5
C6
100
AcDbEntity
  8
0
370
     0
390
0
  6
Continuous
 62
    94
100
AcDbVertex
100
AcDb2dVertex
 10
-649.270015
 20
-745.786225
 30
0.0
  0
SEQEND
  5
C7
100
AcDbEntity
  8
0
370
     0
390
0
  6
Continuous
 62
    94
  0
POLYLINE
  5
C8
100
AcDbEntity
  8
0
370
     0
390
0
  6
Continuous
 62
    94
100
AcDb2dPolyline
 66
     1
 10
0.0
 20
0.0
 30
0.0
 70
   128
  0
VERTEX
  5
C9
100
AcDbEntity
  8
0
370
     0
390
0
  6
Continuous
 62
    94
100
AcDbVertex
100
AcDb2dVertex
 10
-658.202923
 20
-842.118857
 30
0.0
  0
VERTEX
  5
CA
100
AcDbEntity
  8
0
370
     0
390
0
  6
Continuous
 62
    94
100
AcDbVertex
100
AcDb2dVertex
 10
-658.289117
 20
-848.166999
 30
0.0
  0
VERTEX
  5
CB
100
AcDbEntity
  8
0
370
     0
390
0
  6
Continuous
 62
    94
100
AcDbVertex
100
AcDb2dVertex
 10
-656.39832
 20
-853.912636
 30
0.0
  0
SEQEND
  5
CC
100
AcDbEntity
  8
0
370
     0
390
0
  6
Continuous
 62
    94
  0
LINE
  5
CD
100
AcDbEntity
  8
0
370
     0
390
0
  6
Continuous
 62
    94
100
AcDbLine
 10
-365.854163
 20
-820.21768
 30
0.0
 11
-359.854163
 21
-820.21768
 31
0.0
  0
LINE
  5
CE
100
AcDbEntity
  8
0
370
     0
390
0
  6
Continuous
 62
    94
100
AcDbLine
 10
-365.854163
 20
-820.21768
 30
0.0
 11
-371.854163
 21
-820.21768
 31
0.0
  0
CIRCLE
  5
CF
100
AcDbEntity
  8
0
370
     0
390
0
  6
Continuous
 62
    94
100
AcDbCircle
 10
-77.371508
 20
-847.390815
 30
0.0
 40
1.0
  0
CIRCLE
  5
D0
100
AcDbEntity
  8
0
370
     0
390
0
  6
Continuous
 62
    94
100
AcDbCircle
 10
-654.336819
 20
-847.390815
 30
0.0
 40
1.0
  0
TEXT
  5
D2
100
AcDbEntity
  8
0
370
     0
390
0
  6
Continuous
 62
   174
100
AcDbText
 10
-664.196087
 20
-849.98943
 30
0.0
 40
3.0
  1
Boom: c.13'/c.21'
 41
-1.0
  7
Vcadd_Helvet
100
AcDbText
  0
ELLIPSE
  5
D3
100
AcDbEntity
  8
hidden positions
370
     0
390
0
  6
Continuous
 62
    94
100
AcDbEllipse
 10
-120.529287
 20
-645.927667
 30
0.0
 11
-0.8941467327544501
 21
-0.4477740728364097
 31
0.0
210
0.0
220
0.0
230
1.0
 40
0.5
 41
0.0
 42
6.2831853071795862
  0
ELLIPSE
  5
D4
100
AcDbEntity
  8
hidden positions
370
     0
390
0
  6
Continuous
 62
    94
100
AcDbEllipse
 10
-78.763744
 20
-729.328039
 30
0.0
 11
-0.8941467327544501
 21
-0.4477740728364097
 31
0.0
210
0.0
220
0.0
230
1.0
 40
0.5
 41
0.0
 42
6.2831853071795862
  0
ELLIPSE
  5
D5
100
AcDbEntity
  8
hidden positions
370
     0
390
0
  6
Continuous
 62
    94
100
AcDbEllipse
 10
-611.179039
 20
-645.927667
 30
0.0
 11
0.8941467327543933
 21
-0.4477740728364097
 31
0.0
210
0.0
220
0.0
230
1.0
 40
0.5
 41
0.0
 42
6.2831853071795862
  0
ELLIPSE
  5
D6
100
AcDbEntity
  8
hidden positions
370
     0
390
0
  6
Continuous
 62
    94
100
AcDbEllipse
 10
-74.693168
 20
-747.037598
 30
0.0
 11
-0.9955768000573357
 21
-0.0939512383505416
 31
0.0
210
0.0
220
0.0
230
1.0
 40
0.5
 41
0.0
 42
6.2831853071795862
  0
ELLIPSE
  5
D7
100
AcDbEntity
  8
hidden positions
370
     0
390
0
  6
Continuous
 62
    94
100
AcDbEllipse
 10
-65.976964
 20
-839.40094
 30
0.0
 11
-0.9955768000573357
 21
-0.0939512383505416
 31
0.0
210
0.0
220
0.0
230
1.0
 40
0.5
 41
0.0
 42
6.2831853071795862
  0
ELLIPSE
  5
D8
100
AcDbEntity
  8
hidden positions
370
     0
390
0
  6
Continuous
 62
    94
100
AcDbEllipse
 10
-657.015158
 20
-747.037598
 30
0.0
 11
0.9955768000572789
 21
-0.0939512383505416
 31
0.0
210
0.0
220
0.0
230
1.0
 40
0.5
 41
0.0
 42
6.2831853071795862
  0
LINE
  5
DA
100
AcDbEntity
  8
0
370
     0
390
0
  6
DASHED
 62
    94
100
AcDbLine
 10
-365.854163
 20
-780.55876
 30
0.0
 11
-73.538707
 21
-780.55876
 31
0.0
  0
LINE
  5
DB
100
AcDbEntity
  8
0
370
     0
390
0
  6
DASHED
 62
    94
100
AcDbLine
 10
-365.854163
 20
-780.55876
 30
0.0
 11
-658.169619
 21
-780.55876
 31
0.0
  0
LINE
  5
DC
100
AcDbEntity
  8
hidden positions
370
     0
390
0
  6
DOT
 62
    54
100
AcDbLine
 10
-411.354163
 20
-521.55876
 30
0.0
 11
-320.354163
 21
-521.55876
 31
0.0
  0
LINE
  5
DD
100
AcDbEntity
  8
hidden positions
370
     0
390
0
  6
DOT
 62
    54
100
AcDbLine
 10
-411.354163
 20
-519.55876
 30
0.0
 11
-320.354163
 21
-519.55876
 31
0.0
  0
LINE
  5
DE
100
AcDbEntity
  8
hidden positions
370
     0
390
0
  6
DOT
 62
    54
100
AcDbLine
 10
-411.354163
 20
-520.55876
 30
0.0
 11
-320.354163
 21
-520.55876
 31
0.0
  0
INSERT
  5
E8
100
AcDbEntity
  8
drapes
370
     0
390
0
  6
Continuous
 62
    94
100
AcDbBlockReference
  2
DRAPE
 10
-295.461142
 20
-524.04018
 30
0.0
 41
1.0
 42
1.0
 50
69.01
  0
INSERT
  5
E9
100
AcDbEntity
  8
drapes
370
     0
390
0
  6
Continuous
 62
    94
100
AcDbBlockReference
  2
DRAPE
 10
-436.247184
 20
-524.04018
 30
0.0
 41
-1.0
 42
1.0
 50
290.99
  0
ARC
  5
EA
100
AcDbEntity
  8
drapes
370
     0
390
0
  6
Continuous
 62
   134
100
AcDbCircle
 10
-221.704998
 20
-552.342673
 30
0.0
 40
1.0
100
AcDbArc
 50
339.009999
 51
519.010004
  0
ARC
  5
EB
100
AcDbEntity
  8
drapes
370
     0
390
0
  6
Continuous
 62
   134
100
AcDbCircle
 10
-510.003329
 20
-552.342673
 30
0.0
 40
1.0
100
AcDbArc
 50
20.989996
 51
200.990001
  0
ARC
  5
EC
100
AcDbEntity
  8
drapes
370
     0
390
0
  6
Continuous
 62
   134
100
AcDbCircle
 10
-219.837712
 20
-553.059083
 30
0.0
 40
1.0
100
AcDbArc
 50
159.010006
 51
339.009997
  0
ARC
  5
ED
100
AcDbEntity
  8
drapes
370
     0
390
0
  6
Continuous
 62
   134
100
AcDbCircle
 10
-511.870615
 20
-553.059083
 30
0.0
 40
1.0
100
AcDbArc
 50
200.990003
 51
380.989994
  0
ARC
  5
EE
100
AcDbEntity
  8
drapes
370
     0
390
0
  6
Continuous
 62
   134
100
AcDbCircle
 10
-216.10314
 20
-554.491903
 30
0.0
 40
1.0
100
AcDbArc
 50
159.010002
 51
339.010001
  0
ARC
  5
EF
100
AcDbEntity
  8
drapes
370
     0
390
0
  6
Continuous
 62
   134
100
AcDbCircle
 10
-515.605186
 20
-554.491903
 30
0.0
 40
1.0
100
AcDbArc
 50
200.989999
 51
380.989998
  0
ARC
  5
F0
100
AcDbEntity
  8
drapes
370
     0
390
0
  6
Continuous
 62
   134
100
AcDbCircle
 10
-217.970426
 20
-553.775493
 30
0.0
 40
1.0
100
AcDbArc
 50
339.010001
 51
519.010003
  0
ARC
  5
F1
100
AcDbEntity
  8
drapes
370
     0
390
0
  6
Continuous
 62
   134
100
AcDbCircle
 10
-513.737901
 20
-553.775493
 30
0.0
 40
1.0
100
AcDbArc
 50
20.989997
 51
200.989999
  0
INSERT
  5
F2
100
AcDbEntity
  8
drapes
370
     0
390
0
  6
Continuous
 62
    94
100
AcDbBlockReference
  2
DRAPE
 10
-228.240263
 20
-549.834624
 30
0.0
 41
1.0
 42
1.0
 50
69.01
  0
INSERT
  5
F3
100
AcDbEntity
  8
drapes
370
     0
390
0
  6
Continuous
 62
    94
100
AcDbBlockReference
  2
DRAPE
 10
-503.468064
 20
-549.834624
 30
0.0
 41
-1.0
 42
1.0
 50
290.99
  0
INSERT
  5
F4
100
AcDbEntity
  8
drapes
370
     0
390
0
  6
Continuous
 62
    94
100
AcDbBlockReference
  2
DRAPE
 10
-239.443743
 20
-545.53555
 30
0.0
 41
1.0
 42
1.0
 50
69.01
  0
INSERT
  5
F5
100
AcDbEntity
  8
drapes
370
     0
390
0
  6
Continuous
 62
    94
100
AcDbBlockReference
  2
DRAPE
 10
-492.264584
 20
-545.53555
 30
0.0
 41
-1.0
 42
1.0
 50
290.99
  0
INSERT
  5
F6
100
AcDbEntity
  8
drapes
370
     0
390
0
  6
Continuous
 62
    94
100
AcDbBlockReference
  2
DRAPE
 10
-250.647223
 20
-541.236476
 30
0.0
 41
1.0
 42
1.0
 50
69.01
  0
INSERT
  5
F7
100
AcDbEntity
  8
drapes
370
     0
390
0
  6
Continuous
 62
    94
100
AcDbBlockReference
  2
DRAPE
 10
-481.061104
 20
-541.236476
 30
0.0
 41
-1.0
 42
1.0
 50
290.99
  0
INSERT
  5
F8
100
AcDbEntity
  8
drapes
370
     0
390
0
  6
Continuous
 62
    94
100
AcDbBlockReference
  2
DRAPE
 10
-481.061104
 20
-541.236476
 30
0.0
 41
-1.0
 42
1.0
 50
290.99
  0
INSERT
  5
F9
100
AcDbEntity
  8
drapes
370
     0
390
0
  6
Continuous
 62
    94
100
AcDbBlockReference
  2
DRAPE
 10
-261.850703
 20
-536.937402
 30
0.0
 41
1.0
 42
1.0
 50
69.01
  0
INSERT
  5
FA
100
AcDbEntity
  8
drapes
370
     0
390
0
  6
Continuous
 62
    94
100
AcDbBlockReference
  2
DRAPE
 10
-469.857624
 20
-536.937402
 30
0.0
 41
-1.0
 42
1.0
 50
290.99
  0
INSERT
  5
FB
100
AcDbEntity
  8
drapes
370
     0
390
0
  6
Continuous
 62
    94
100
AcDbBlockReference
  2
DRAPE
 10
-273.054183
 20
-532.638328
 30
0.0
 41
1.0
 42
1.0
 50
69.01
  0
INSERT
  5
FC
100
AcDbEntity
  8
drapes
370
     0
390
0
  6
Continuous
 62
    94
100
AcDbBlockReference
  2
DRAPE
 10
-458.654144
 20
-532.638328
 30
0.0
 41
-1.0
 42
1.0
 50
290.99
  0
INSERT
  5
FD
100
AcDbEntity
  8
drapes
370
     0
390
0
  6
Continuous
 62
    94
100
AcDbBlockReference
  2
DRAPE
 10
-284.257663
 20
-528.339254
 30
0.0
 41
1.0
 42
1.0
 50
69.01
  0
INSERT
  5
FE
100
AcDbEntity
  8
drapes
370
     0
390
0
  6
Continuous
 62
    94
100
AcDbBlockReference
  2
DRAPE
 10
-447.450664
 20
-528.339254
 30
0.0
 41
-1.0
 42
1.0
 50
290.99
  0
INSERT
  5
FF
100
AcDbEntity
  8
drapes
370
     0
390
0
  6
Continuous
 62
    94
100
AcDbBlockReference
  2
DRAPE
 10
-193.529591
 20
-570.124283
 30
0.0
 41
1.0
 42
1.0
 50
47.81
  0
INSERT
  5
100
100
AcDbEntity
  8
drapes
370
     0
390
0
  6
Continuous
 62
    94
100
AcDbBlockReference
  2
DRAPE
 10
-538.178735
 20
-570.124283
 30
0.0
 41
-1.0
 42
1.0
 50
312.19
  0
ARC
  5
101
100
AcDbEntity
  8
drapes
370
     0
390
0
  6
Continuous
 62
   134
100
AcDbCircle
 10
-134.995822
 20
-623.178951
 30
0.0
 40
1.0
100
AcDbArc
 50
317.809999
 51
497.810004
  0
ARC
  5
102
100
AcDbEntity
  8
drapes
370
     0
390
0
  6
Continuous
 62
   134
100
AcDbCircle
 10
-596.712505
 20
-623.178951
 30
0.0
 40
1.0
100
AcDbArc
 50
42.189996
 51
222.190001
  0
ARC
  5
103
100
AcDbEntity
  8
drapes
370
     0
390
0
  6
Continuous
 62
   134
100
AcDbCircle
 10
-133.513978
 20
-624.522134
 30
0.0
 40
1.0
100
AcDbArc
 50
137.810006
 51
317.809997
  0
ARC
  5
104
100
AcDbEntity
  8
drapes
370
     0
390
0
  6
Continuous
 62
   134
100
AcDbCircle
 10
-598.194348
 20
-624.522134
 30
0.0
 40
1.0
100
AcDbArc
 50
222.190003
 51
402.189994
  0
ARC
  5
105
100
AcDbEntity
  8
drapes
370
     0
390
0
  6
Continuous
 62
   134
100
AcDbCircle
 10
-130.550291
 20
-627.208499
 30
0.0
 40
1.0
100
AcDbArc
 50
137.810002
 51
317.810001
  0
ARC
  5
106
100
AcDbEntity
  8
drapes
370
     0
390
0
  6
Continuous
 62
   134
100
AcDbCircle
 10
-601.158036
 20
-627.208499
 30
0.0
 40
1.0
100
AcDbArc
 50
222.189999
 51
402.189998
  0
ARC
  5
107
100
AcDbEntity
  8
drapes
370
     0
390
0
  6
Continuous
 62
   134
100
AcDbCircle
 10
-132.032134
 20
-625.865317
 30
0.0
 40
1.0
100
AcDbArc
 50
317.810001
 51
497.810003
  0
ARC
  5
108
100
AcDbEntity
  8
drapes
370
     0
390
0
  6
Continuous
 62
   134
100
AcDbCircle
 10
-599.676192
 20
-625.865317
 30
0.0
 40
1.0
100
AcDbArc
 50
42.189997
 51
222.189999
  0
INSERT
  5
109
100
AcDbEntity
  8
drapes
370
     0
390
0
  6
Continuous
 62
    94
100
AcDbBlockReference
  2
DRAPE
 10
-140.18241
 20
-618.477961
 30
0.0
 41
1.0
 42
1.0
 50
47.81
  0
INSERT
  5
10A
100
AcDbEntity
  8
drapes
370
     0
390
0
  6
Continuous
 62
    94
100
AcDbBlockReference
  2
DRAPE
 10
-591.525917
 20
-618.477961
 30
0.0
 41
-1.0
 42
1.0
 50
312.19
  0
INSERT
  5
10B
100
AcDbEntity
  8
drapes
370
     0
390
0
  6
Continuous
 62
    94
100
AcDbBlockReference
  2
DRAPE
 10
-149.073607
 20
-610.419015
 30
0.0
 41
1.0
 42
1.0
 50
47.81
  0
INSERT
  5
10C
100
AcDbEntity
  8
drapes
370
     0
390
0
  6
Continuous
 62
    94
100
AcDbBlockReference
  2
DRAPE
 10
-582.63472
 20
-610.419015
 30
0.0
 41
-1.0
 42
1.0
 50
312.19
  0
INSERT
  5
10D
100
AcDbEntity
  8
drapes
370
     0
390
0
  6
Continuous
 62
    94
100
AcDbBlockReference
  2
DRAPE
 10
-157.964803
 20
-602.360069
 30
0.0
 41
1.0
 42
1.0
 50
47.81
  0
INSERT
  5
10E
100
AcDbEntity
  8
drapes
370
     0
390
0
  6
Continuous
 62
    94
100
AcDbBlockReference
  2
DRAPE
 10
-573.743523
 20
-602.360069
 30
0.0
 41
-1.0
 42
1.0
 50
312.19
  0
INSERT
  5
10F
100
AcDbEntity
  8
drapes
370
     0
390
0
  6
Continuous
 62
    94
100
AcDbBlockReference
  2
DRAPE
 10
-166.856
 20
-594.301122
 30
0.0
 41
1.0
 42
1.0
 50
47.81
  0
INSERT
  5
110
100
AcDbEntity
  8
drapes
370
     0
390
0
  6
Continuous
 62
    94
100
AcDbBlockReference
  2
DRAPE
 10
-564.852326
 20
-594.301122
 30
0.0
 41
-1.0
 42
1.0
 50
312.19
  0
INSERT
  5
111
100
AcDbEntity
  8
drapes
370
     0
390
0
  6
Continuous
 62
    94
100
AcDbBlockReference
  2
DRAPE
 10
-175.747197
 20
-586.242176
 30
0.0
 41
1.0
 42
1.0
 50
47.81
  0
INSERT
  5
112
100
AcDbEntity
  8
drapes
370
     0
390
0
  6
Continuous
 62
    94
100
AcDbBlockReference
  2
DRAPE
 10
-555.961129
 20
-586.242176
 30
0.0
 41
-1.0
 42
1.0
 50
312.19
  0
INSERT
  5
113
100
AcDbEntity
  8
drapes
370
     0
390
0
  6
Continuous
 62
    94
100
AcDbBlockReference
  2
DRAPE
 10
-184.638394
 20
-578.183229
 30
0.0
 41
1.0
 42
1.0
 50
47.81
  0
INSERT
  5
114
100
AcDbEntity
  8
drapes
370
     0
390
0
  6
Continuous
 62
    94
100
AcDbBlockReference
  2
DRAPE
 10
-547.069932
 20
-578.183229
 30
0.0
 41
-1.0
 42
1.0
 50
312.19
  0
INSERT
  5
115
100
AcDbEntity
  8
drapes
370
     0
390
0
  6
Continuous
 62
    94
100
AcDbBlockReference
  2
DRAPE
 10
-115.160203
 20
-649.949225
 30
0.0
 41
1.0
 42
1.0
 50
26.6
  0
INSERT
  5
116
100
AcDbEntity
  8
drapes
370
     0
390
0
  6
Continuous
 62
    94
100
AcDbBlockReference
  2
DRAPE
 10
-616.548124
 20
-649.949225
 30
0.0
 41
-1.0
 42
1.0
 50
333.4
  0
ARC
  5
117
100
AcDbEntity
  8
drapes
370
     0
390
0
  6
Continuous
 62
   134
100
AcDbCircle
 10
-79.785976
 20
-720.586779
 30
0.0
 40
1.0
100
AcDbArc
 50
296.599999
 51
476.600004
  0
ARC
  5
118
100
AcDbEntity
  8
drapes
370
     0
390
0
  6
Continuous
 62
   134
100
AcDbCircle
 10
-651.922351
 20
-720.586779
 30
0.0
 40
1.0
100
AcDbArc
 50
63.399996
 51
243.400001
  0
ARC
  5
119
100
AcDbEntity
  8
drapes
370
     0
390
0
  6
Continuous
 62
   134
100
AcDbCircle
 10
-78.890458
 20
-722.375088
 30
0.0
 40
1.0
100
AcDbArc
 50
116.600006
 51
296.599997
  0
ARC
  5
11A
100
AcDbEntity
  8
drapes
370
     0
390
0
  6
Continuous
 62
   134
100
AcDbCircle
 10
-652.817869
 20
-722.375088
 30
0.0
 40
1.0
100
AcDbArc
 50
243.400003
 51
423.399994
  0
ARC
  5
11B
100
AcDbEntity
  8
drapes
370
     0
390
0
  6
Continuous
 62
   134
100
AcDbCircle
 10
-77.099421
 20
-725.951705
 30
0.0
 40
1.0
100
AcDbArc
 50
116.600002
 51
296.600001
  0
ARC
  5
11C
100
AcDbEntity
  8
drapes
370
     0
390
0
  6
Continuous
 62
   134
100
AcDbCircle
 10
-654.608905
 20
-725.951705
 30
0.0
 40
1.0
100
AcDbArc
 50
243.399999
 51
423.399998
  0
ARC
  5
11D
100
AcDbEntity
  8
drapes
370
     0
390
0
  6
Continuous
 62
   134
100
AcDbCircle
 10
-77.99494
 20
-724.163396
 30
0.0
 40
1.0
100
AcDbArc
 50
296.600001
 51
476.600003
  0
ARC
  5
11E
100
AcDbEntity
  8
drapes
370
     0
390
0
  6
Continuous
 62
   134
100
AcDbCircle
 10
-653.713387
 20
-724.163396
 30
0.0
 40
1.0
100
AcDbArc
 50
63.399997
 51
243.399999
  0
INSERT
  5
11F
100
AcDbEntity
  8
drapes
370
     0
390
0
  6
Continuous
 62
    94
100
AcDbBlockReference
  2
DRAPE
 10
-82.920469
 20
-714.32779
 30
0.0
 41
1.0
 42
1.0
 50
26.6
  0
INSERT
  5
120
100
AcDbEntity
  8
drapes
370
     0
390
0
  6
Continuous
 62
    94
100
AcDbBlockReference
  2
DRAPE
 10
-648.787857
 20
-714.32779
 30
0.0
 41
-1.0
 42
1.0
 50
333.4
  0
INSERT
  5
121
100
AcDbEntity
  8
drapes
370
     0
390
0
  6
Continuous
 62
    94
100
AcDbBlockReference
  2
DRAPE
 10
-88.293758
 20
-703.598029
 30
0.0
 41
1.0
 42
1.0
 50
26.6
  0
INSERT
  5
122
100
AcDbEntity
  8
drapes
370
     0
390
0
  6
Continuous
 62
    94
100
AcDbBlockReference
  2
DRAPE
 10
-643.414568
 20
-703.598029
 30
0.0
 41
-1.0
 42
1.0
 50
333.4
  0
INSERT
  5
123
100
AcDbEntity
  8
drapes
370
     0
390
0
  6
Continuous
 62
    94
100
AcDbBlockReference
  2
DRAPE
 10
-93.667047
 20
-692.868268
 30
0.0
 41
1.0
 42
1.0
 50
26.6
  0
INSERT
  5
124
100
AcDbEntity
  8
drapes
370
     0
390
0
  6
Continuous
 62
    94
100
AcDbBlockReference
  2
DRAPE
 10
-99.040336
 20
-682.138507
 30
0.0
 41
1.0
 42
1.0
 50
26.6
  0
INSERT
  5
125
100
AcDbEntity
  8
drapes
370
     0
390
0
  6
Continuous
 62
    94
100
AcDbBlockReference
  2
DRAPE
 10
-632.667991
 20
-682.138507
 30
0.0
 41
-1.0
 42
1.0
 50
333.4
  0
INSERT
  5
126
100
AcDbEntity
  8
drapes
370
     0
390
0
  6
Continuous
 62
    94
100
AcDbBlockReference
  2
DRAPE
 10
-104.413625
 20
-671.408747
 30
0.0
 41
1.0
 42
1.0
 50
26.6
  0
INSERT
  5
127
100
AcDbEntity
  8
drapes
370
     0
390
0
  6
Continuous
 62
    94
100
AcDbBlockReference
  2
DRAPE
 10
-627.294702
 20
-671.408747
 30
0.0
 41
-1.0
 42
1.0
 50
333.4
  0
INSERT
  5
128
100
AcDbEntity
  8
drapes
370
     0
390
0
  6
Continuous
 62
    94
100
AcDbBlockReference
  2
DRAPE
 10
-109.786914
 20
-660.678986
 30
0.0
 41
1.0
 42
1.0
 50
26.6
  0
INSERT
  5
129
100
AcDbEntity
  8
drapes
370
     0
390
0
  6
Continuous
 62
    94
100
AcDbBlockReference
  2
DRAPE
 10
-621.921413
 20
-660.678986
 30
0.0
 41
-1.0
 42
1.0
 50
333.4
  0
INSERT
  5
12A
100
AcDbEntity
  8
drapes
370
     0
390
0
  6
Continuous
 62
    94
100
AcDbBlockReference
  2
DRAPE
 10
-71.14273
 20
-752.729205
 30
0.0
 41
1.0
 42
1.0
 50
5.39
  0
INSERT
  5
12B
100
AcDbEntity
  8
drapes
370
     0
390
0
  6
Continuous
 62
    94
100
AcDbBlockReference
  2
DRAPE
 10
-660.565596
 20
-752.729205
 30
0.0
 41
-1.0
 42
1.0
 50
354.61
  0
ARC
  5
12C
100
AcDbEntity
  8
drapes
370
     0
390
0
  6
Continuous
 62
   134
100
AcDbCircle
 10
-63.720499
 20
-831.379765
 30
0.0
 40
1.0
100
AcDbArc
 50
275.389999
 51
455.390004
  0
ARC
  5
12D
100
AcDbEntity
  8
drapes
370
     0
390
0
  6
Continuous
 62
   134
100
AcDbCircle
 10
-667.987827
 20
-831.379765
 30
0.0
 40
1.0
100
AcDbArc
 50
84.609996
 51
264.610001
  0
ARC
  5
12E
100
AcDbEntity
  8
drapes
370
     0
390
0
  6
Continuous
 62
   134
100
AcDbCircle
 10
-63.53263
 20
-833.370921
 30
0.0
 40
1.0
100
AcDbArc
 50
95.390006
 51
275.389997
  0
ARC
  5
12F
100
AcDbEntity
  8
drapes
370
     0
390
0
  6
Continuous
 62
   134
100
AcDbCircle
 10
-668.175696
 20
-833.370921
 30
0.0
 40
1.0
100
AcDbArc
 50
264.610003
 51
444.609994
  0
ARC
  5
130
100
AcDbEntity
  8
drapes
370
     0
390
0
  6
Continuous
 62
   134
100
AcDbCircle
 10
-63.156892
 20
-837.353235
 30
0.0
 40
1.0
100
AcDbArc
 50
95.390002
 51
275.390001
  0
ARC
  5
131
100
AcDbEntity
  8
drapes
370
     0
390
0
  6
Continuous
 62
   134
100
AcDbCircle
 10
-668.551435
 20
-837.353235
 30
0.0
 40
1.0
100
AcDbArc
 50
264.609999
 51
444.609998
  0
ARC
  5
132
100
AcDbEntity
  8
drapes
370
     0
390
0
  6
Continuous
 62
   134
100
AcDbCircle
 10
-63.344761
 20
-835.362078
 30
0.0
 40
1.0
100
AcDbArc
 50
275.390001
 51
455.390003
  0
ARC
  5
133
100
AcDbEntity
  8
drapes
370
     0
390
0
  6
Continuous
 62
   134
100
AcDbCircle
 10
-668.363566
 20
-835.362078
 30
0.0
 40
1.0
100
AcDbArc
 50
84.609997
 51
264.609999
  0
INSERT
  5
134
100
AcDbEntity
  8
drapes
370
     0
390
0
  6
Continuous
 62
    94
100
AcDbBlockReference
  2
DRAPE
 10
-64.378241
 20
-824.410735
 30
0.0
 41
1.0
 42
1.0
 50
5.39
  0
INSERT
  5
135
100
AcDbEntity
  8
drapes
370
     0
390
0
  6
Continuous
 62
    94
100
AcDbBlockReference
  2
DRAPE
 10
-667.330085
 20
-824.410735
 30
0.0
 41
-1.0
 42
1.0
 50
354.61
  0
INSERT
  5
136
100
AcDbEntity
  8
drapes
370
     0
390
0
  6
Continuous
 62
    94
100
AcDbBlockReference
  2
DRAPE
 10
-65.505656
 20
-812.463813
 30
0.0
 41
1.0
 42
1.0
 50
5.39
  0
INSERT
  5
137
100
AcDbEntity
  8
drapes
370
     0
390
0
  6
Continuous
 62
    94
100
AcDbBlockReference
  2
DRAPE
 10
-666.20267
 20
-812.463813
 30
0.0
 41
-1.0
 42
1.0
 50
354.61
  0
INSERT
  5
138
100
AcDbEntity
  8
drapes
370
     0
390
0
  6
Continuous
 62
    94
100
AcDbBlockReference
  2
DRAPE
 10
-66.633071
 20
-800.516892
 30
0.0
 41
1.0
 42
1.0
 50
5.39
  0
INSERT
  5
139
100
AcDbEntity
  8
drapes
370
     0
390
0
  6
Continuous
 62
    94
100
AcDbBlockReference
  2
DRAPE
 10
-665.075255
 20
-800.516892
 30
0.0
 41
-1.0
 42
1.0
 50
354.61
  0
INSERT
  5
13A
100
AcDbEntity
  8
drapes
370
     0
390
0
  6
Continuous
 62
    94
100
AcDbBlockReference
  2
DRAPE
 10
-67.760486
 20
-788.56997
 30
0.0
 41
1.0
 42
1.0
 50
5.39
  0
INSERT
  5
13B
100
AcDbEntity
  8
drapes
370
     0
390
0
  6
Continuous
 62
    94
100
AcDbBlockReference
  2
DRAPE
 10
-68.887901
 20
-776.623049
 30
0.0
 41
1.0
 42
1.0
 50
5.39
  0
INSERT
  5
13C
100
AcDbEntity
  8
drapes
370
     0
390
0
  6
Continuous
 62
    94
100
AcDbBlockReference
  2
DRAPE
 10
-70.015316
 20
-764.676127
 30
0.0
 41
1.0
 42
1.0
 50
5.39
  0
INSERT
  5
13D
100
AcDbEntity
  8
drapes
370
     0
390
0
  6
Continuous
 62
    94
100
AcDbBlockReference
  2
DRAPE
 10
-661.693011
 20
-764.676127
 30
0.0
 41
-1.0
 42
1.0
 50
354.61
  0
INSERT
  5
13E
100
AcDbEntity
  8
drapes
370
     0
390
0
  6
Continuous
 62
    94
100
AcDbBlockReference
  2
DRAPE
 10
-405.354163
 20
-517.55876
 30
0.0
 50
90.0
  0
ARC
  5
13F
100
AcDbEntity
  8
drapes
370
     0
390
0
  6
Continuous
 62
   134
100
AcDbCircle
 10
-326.354163
 20
-517.55876
 30
0.0
 40
1.0
100
AcDbArc
 50
359.999999
 51
540.000004
  0
ARC
  5
140
100
AcDbEntity
  8
drapes
370
     0
390
0
  6
Continuous
 62
   134
100
AcDbCircle
 10
-324.354163
 20
-517.55876
 30
0.0
 40
1.0
100
AcDbArc
 50
180.000006
 51
359.999997
  0
ARC
  5
141
100
AcDbEntity
  8
drapes
370
     0
390
0
  6
Continuous
 62
   134
100
AcDbCircle
 10
-320.354163
 20
-517.55876
 30
0.0
 40
1.0
100
AcDbArc
 50
180.000002
 51
360.000001
  0
ARC
  5
142
100
AcDbEntity
  8
drapes
370
     0
390
0
  6
Continuous
 62
   134
100
AcDbCircle
 10
-322.354163
 20
-517.55876
 30
0.0
 40
1.0
100
AcDbArc
 50
0.000001
 51
180.000003
  0
INSERT
  5
143
100
AcDbEntity
  8
drapes
370
     0
390
0
  6
Continuous
 62
    94
100
AcDbBlockReference
  2
DRAPE
 10
-333.354163
 20
-517.55876
 30
0.0
 50
90.0
  0
INSERT
  5
144
100
AcDbEntity
  8
drapes
370
     0
390
0
  6
Continuous
 62
    94
100
AcDbBlockReference
  2
DRAPE
 10
-345.354163
 20
-517.55876
 30
0.0
 50
90.0
  0
INSERT
  5
145
100
AcDbEntity
  8
drapes
370
     0
390
0
  6
Continuous
 62
    94
100
AcDbBlockReference
  2
DRAPE
 10
-357.354163
 20
-517.55876
 30
0.0
 50
90.0
  0
INSERT
  5
146
100
AcDbEntity
  8
drapes
370
     0
390
0
  6
Continuous
 62
    94
100
AcDbBlockReference
  2
DRAPE
 10
-369.354163
 20
-517.55876
 30
0.0
 50
90.0
  0
INSERT
  5
147
100
AcDbEntity
  8
drapes
370
     0
390
0
  6
Continuous
 62
    94
100
AcDbBlockReference
  2
DRAPE
 10
-381.354163
 20
-517.55876
 30
0.0
 50
90.0
  0
INSERT
  5
148
100
AcDbEntity
  8
drapes
370
     0
390
0
  6
Continuous
 62
    94
100
AcDbBlockReference
  2
DRAPE
 10
-393.354163
 20
-517.55876
 30
0.0
 50
90.0
  0
LINE
  5
149
100
AcDbEntity
  8
0
370
     0
390
0
  6
DASHED
 62
    94
100
AcDbLine
 10
-536.354163
 20
-780.55876
 30
0.0
 11
-536.354163
 21
-575.218746
 31
0.0
  0
LINE
  5
14A
100
AcDbEntity
  8
0
370
     0
390
0
  6
DASHED
 62
    94
100
AcDbLine
 10
-195.354163
 20
-780.55876
 30
0.0
 11
-195.354163
 21
-575.218746
 31
0.0
  0
INSERT
  5
166
100
AcDbEntity
  8
0
370
     0
390
0
  6
Continuous
 62
    94
100
AcDbBlockReference
  2
hanging position
 10
-116.736518
 20
-965.878203
 30
0.0
 41
1.5
 42
1.5
  0
INSERT
  5
167
100
AcDbEntity
  8
0
370
     0
390
0
  6
Continuous
 62
    94
100
AcDbBlockReference
  2
hanging position
 10
-101.371508
 20
-847.390815
 30
0.0
 41
1.5
 42
1.5
  0
INSERT
  5
168
100
AcDbEntity
  8
0
370
     0
390
0
  6
Continuous
 62
    94
100
AcDbBlockReference
  2
hanging position
 10
-630.336819
 20
-847.390815
 30
0.0
 41
-1.5
 42
1.5
 50
180.0
  0
TEXT
  5
169
100
AcDbEntity
  8
0
370
     0
390
0
  6
Continuous
 62
   174
100
AcDbText
 10
-104.159923
 20
-843.16251
 30
0.0
 40
3.0
  1
SL
  7
Vcadd_Helvet
 72
     1
 11
-101.371508
 21
-843.16251
 31
0.0
100
AcDbText
  0
TEXT
  5
16A
100
AcDbEntity
  8
0
370
     0
390
0
  6
Continuous
 62
   174
100
AcDbText
 10
-105.575485
 20
-847.66251
 30
0.0
 40
3.0
  1
Box
  7
Vcadd_Helvet
 72
     1
 11
-101.371508
 21
-847.66251
 31
0.0
100
AcDbText
  0
TEXT
  5
16B
100
AcDbEntity
  8
0
370
     0
390
0
  6
Continuous
 62
   174
100
AcDbText
 10
-107.611273
 20
-852.16251
 30
0.0
 40
3.0
  1
Boom
  7
Vcadd_Helvet
 72
     1
 11
-101.371508
 21
-852.16251
 31
0.0
100
AcDbText
  0
TEXT
  5
16C
100
AcDbEntity
  8
0
370
     0
390
0
  6
Continuous
 62
   174
100
AcDbText
 10
-633.455684
 20
-843.16251
 30
0.0
 40
3.0
  1
SR
  7
Vcadd_Helvet
 72
     1
 11
-630.336819
 21
-843.16251
 31
0.0
100
AcDbText
  0
TEXT
  5
16D
100
AcDbEntity
  8
0
370
     0
390
0
  6
Continuous
 62
   174
100
AcDbText
 10
-634.540796
 20
-847.66251
 30
0.0
 40
3.0
  1
Box
  7
Vcadd_Helvet
 72
     1
 11
-630.336819
 21
-847.66251
 31
0.0
100
AcDbText
  0
TEXT
  5
16E
100
AcDbEntity
  8
0
370
     0
390
0
  6
Continuous
 62
   174
100
AcDbText
 10
-636.576584
 20
-852.16251
 30
0.0
 40
3.0
  1
Boom
  7
Vcadd_Helvet
 72
     1
 11
-630.336819
 21
-852.16251
 31
0.0
100
AcDbText
  0
LINE
  5
16F
100
AcDbEntity
  8
0
370
     0
390
0
  6
Continuous
 62
    94
100
AcDbLine
 10
-320.354163
 20
-522.55876
 30
0.0
 11
-411.354163
 21
-522.55876
 31
0.0
  0
INSERT
  5
17F
100
AcDbEntity
  8
0
370
     0
390
0
  6
Continuous
 62
    94
100
AcDbBlockReference
  2
2ft rule
 10
-365.854163
 20
-929.264061
 30
0.0
  0
INSERT
  5
180
100
AcDbEntity
  8
0
370
     0
390
0
  6
Continuous
 62
    94
100
AcDbBlockReference
  2
2ft rule
 10
-365.854163
 20
-929.264061
 30
0.0
 41
-1.0
  0
INSERT
  5
181
100
AcDbEntity
  8
0
370
     0
390
0
  6
Continuous
 62
    94
100
AcDbBlockReference
  2
2ft rule
 10
-77.854163
 20
-929.264061
 30
0.0
  0
INSERT
  5
182
100
AcDbEntity
  8
0
370
     0
390
0
  6
Continuous
 62
    94
100
AcDbBlockReference
  2
2ft rule
 10
-653.854163
 20
-929.264061
 30
0.0
 41
-1.0
  0
INSERT
  5
183
100
AcDbEntity
  8
0
370
     0
390
0
  6
Continuous
 62
    94
100
AcDbBlockReference
  2
2ft rule
 10
-101.854163
 20
-929.264061
 30
0.0
  0
INSERT
  5
184
100
AcDbEntity
  8
0
370
     0
390
0
  6
Continuous
 62
    94
100
AcDbBlockReference
  2
2ft rule
 10
-629.854163
 20
-929.264061
 30
0.0
 41
-1.0
  0
INSERT
  5
185
100
AcDbEntity
  8
0
370
     0
390
0
  6
Continuous
 62
    94
100
AcDbBlockReference
  2
2ft rule
 10
-125.854163
 20
-929.264061
 30
0.0
  0
INSERT
  5
186
100
AcDbEntity
  8
0
370
     0
390
0
  6
Continuous
 62
    94
100
AcDbBlockReference
  2
2ft rule
 10
-605.854163
 20
-929.264061
 30
0.0
 41
-1.0
  0
INSERT
  5
187
100
AcDbEntity
  8
0
370
     0
390
0
  6
Continuous
 62
    94
100
AcDbBlockReference
  2
2ft rule
 10
-149.854163
 20
-929.264061
 30
0.0
  0
INSERT
  5
188
100
AcDbEntity
  8
0
370
     0
390
0
  6
Continuous
 62
    94
100
AcDbBlockReference
  2
2ft rule
 10
-581.854163
 20
-929.264061
 30
0.0
 41
-1.0
  0
INSERT
  5
189
100
AcDbEntity
  8
0
370
     0
390
0
  6
Continuous
 62
    94
100
AcDbBlockReference
  2
2ft rule
 10
-173.854163
 20
-929.264061
 30
0.0
  0
INSERT
  5
18A
100
AcDbEntity
  8
0
370
     0
390
0
  6
Continuous
 62
    94
100
AcDbBlockReference
  2
2ft rule
 10
-557.854163
 20
-929.264061
 30
0.0
 41
-1.0
  0
INSERT
  5
18B
100
AcDbEntity
  8
0
370
     0
390
0
  6
Continuous
 62
    94
100
AcDbBlockReference
  2
2ft rule
 10
-197.854163
 20
-929.264061
 30
0.0
  0
INSERT
  5
18C
100
AcDbEntity
  8
0
370
     0
390
0
  6
Continuous
 62
    94
100
AcDbBlockReference
  2
2ft rule
 10
-533.854163
 20
-929.264061
 30
0.0
 41
-1.0
  0
INSERT
  5
18D
100
AcDbEntity
  8
0
370
     0
390
0
  6
Continuous
 62
    94
100
AcDbBlockReference
  2
2ft rule
 10
-221.854163
 20
-929.264061
 30
0.0
  0
INSERT
  5
18E
100
AcDbEntity
  8
0
370
     0
390
0
  6
Continuous
 62
    94
100
AcDbBlockReference
  2
2ft rule
 10
-509.854163
 20
-929.264061
 30
0.0
 41
-1.0
  0
INSERT
  5
18F
100
AcDbEntity
  8
0
370
     0
390
0
  6
Continuous
 62
    94
100
AcDbBlockReference
  2
2ft rule
 10
-245.854163
 20
-929.264061
 30
0.0
  0
INSERT
  5
190
100
AcDbEntity
  8
0
370
     0
390
0
  6
Continuous
 62
    94
100
AcDbBlockReference
  2
2ft rule
 10
-485.854163
 20
-929.264061
 30
0.0
 41
-1.0
  0
INSERT
  5
191
100
AcDbEntity
  8
0
370
     0
390
0
  6
Continuous
 62
    94
100
AcDbBlockReference
  2
2ft rule
 10
-269.854163
 20
-929.264061
 30
0.0
  0
INSERT
  5
192
100
AcDbEntity
  8
0
370
     0
390
0
  6
Continuous
 62
    94
100
AcDbBlockReference
  2
2ft rule
 10
-461.854163
 20
-929.264061
 30
0.0
 41
-1.0
  0
INSERT
  5
193
100
AcDbEntity
  8
0
370
     0
390
0
  6
Continuous
 62
    94
100
AcDbBlockReference
  2
2ft rule
 10
-293.854163
 20
-929.264061
 30
0.0
  0
INSERT
  5
194
100
AcDbEntity
  8
0
370
     0
390
0
  6
Continuous
 62
    94
100
AcDbBlockReference
  2
2ft rule
 10
-437.854163
 20
-929.264061
 30
0.0
 41
-1.0
  0
INSERT
  5
195
100
AcDbEntity
  8
0
370
     0
390
0
  6
Continuous
 62
    94
100
AcDbBlockReference
  2
2ft rule
 10
-317.854163
 20
-929.264061
 30
0.0
  0
INSERT
  5
196
100
AcDbEntity
  8
0
370
     0
390
0
  6
Continuous
 62
    94
100
AcDbBlockReference
  2
2ft rule
 10
-413.854163
 20
-929.264061
 30
0.0
 41
-1.0
  0
INSERT
  5
197
100
AcDbEntity
  8
0
370
     0
390
0
  6
Continuous
 62
    94
100
AcDbBlockReference
  2
2ft rule
 10
-341.854163
 20
-929.264061
 30
0.0
  0
INSERT
  5
198
100
AcDbEntity
  8
0
370
     0
390
0
  6
Continuous
 62
    94
100
AcDbBlockReference
  2
2ft rule
 10
-389.854163
 20
-929.264061
 30
0.0
 41
-1.0
  0
TEXT
  5
199
100
AcDbEntity
  8
0
370
     0
390
0
  6
Continuous
 62
   174
100
AcDbText
 10
-355.008195
 20
-920.264061
 30
0.0
 40
3.0
  1
1'
  7
Vcadd_Helvet
 72
     1
 11
-353.854163
 21
-920.264061
 31
0.0
100
AcDbText
  0
TEXT
  5
19A
100
AcDbEntity
  8
0
370
     0
390
0
  6
Continuous
 62
   174
100
AcDbText
 10
-379.008195
 20
-920.264061
 30
0.0
 40
3.0
  1
1'
  7
Vcadd_Helvet
 72
     1
 11
-377.854163
 21
-920.264061
 31
0.0
100
AcDbText
  0
TEXT
  5
19B
100
AcDbEntity
  8
0
370
     0
390
0
  6
Continuous
 62
   174
100
AcDbText
 10
-331.550889
 20
-920.264061
 30
0.0
 40
3.0
  1
3'
  7
Vcadd_Helvet
 72
     1
 11
-329.854163
 21
-920.264061
 31
0.0
100
AcDbText
  0
TEXT
  5
19C
100
AcDbEntity
  8
0
370
     0
390
0
  6
Continuous
 62
   174
100
AcDbText
 10
-403.550889
 20
-920.264061
 30
0.0
 40
3.0
  1
3'
  7
Vcadd_Helvet
 72
     1
 11
-401.854163
 21
-920.264061
 31
0.0
100
AcDbText
  0
TEXT
  5
19D
100
AcDbEntity
  8
0
370
     0
390
0
  6
Continuous
 62
   174
100
AcDbText
 10
-307.563817
 20
-920.264061
 30
0.0
 40
3.0
  1
5'
  7
Vcadd_Helvet
 72
     1
 11
-305.854163
 21
-920.264061
 31
0.0
100
AcDbText
  0
TEXT
  5
19E
100
AcDbEntity
  8
0
370
     0
390
0
  6
Continuous
 62
   174
100
AcDbText
 10
-427.563817
 20
-920.264061
 30
0.0
 40
3.0
  1
5'
  7
Vcadd_Helvet
 72
     1
 11
-425.854163
 21
-920.264061
 31
0.0
100
AcDbText
  0
TEXT
  5
19F
100
AcDbEntity
  8
0
370
     0
390
0
  6
Continuous
 62
   174
100
AcDbText
 10
-283.55463
 20
-920.264061
 30
0.0
 40
3.0
  1
7'
  7
Vcadd_Helvet
 72
     1
 11
-281.854163
 21
-920.264061
 31
0.0
100
AcDbText
  0
TEXT
  5
1A0
100
AcDbEntity
  8
0
370
     0
390
0
  6
Continuous
 62
   174
100
AcDbText
 10
-451.55463
 20
-920.264061
 30
0.0
 40
3.0
  1
7'
  7
Vcadd_Helvet
 72
     1
 11
-449.854163
 21
-920.264061
 31
0.0
100
AcDbText
  0
TEXT
  5
1A1
100
AcDbEntity
  8
0
370
     0
390
0
  6
Continuous
 62
   174
100
AcDbText
 10
-259.53891
 20
-920.264061
 30
0.0
 40
3.0
  1
9'
  7
Vcadd_Helvet
 72
     1
 11
-257.854163
 21
-920.264061
 31
0.0
100
AcDbText
  0
TEXT
  5
1A2
100
AcDbEntity
  8
0
370
     0
390
0
  6
Continuous
 62
   174
100
AcDbText
 10
-475.53891
 20
-920.264061
 30
0.0
 40
3.0
  1
9'
  7
Vcadd_Helvet
 72
     1
 11
-473.854163
 21
-920.264061
 31
0.0
100
AcDbText
  0
TEXT
  5
1A3
100
AcDbEntity
  8
0
370
     0
390
0
  6
Continuous
 62
   174
100
AcDbText
 10
-235.939099
 20
-920.264061
 30
0.0
 40
3.0
  1
11'
  7
Vcadd_Helvet
 72
     1
 11
-233.854163
 21
-920.264061
 31
0.0
100
AcDbText
  0
TEXT
  5
1A4
100
AcDbEntity
  8
0
370
     0
390
0
  6
Continuous
 62
   174
100
AcDbText
 10
-499.939099
 20
-920.264061
 30
0.0
 40
3.0
  1
11'
  7
Vcadd_Helvet
 72
     1
 11
-497.854163
 21
-920.264061
 31
0.0
100
AcDbText
  0
TEXT
  5
1A5
100
AcDbEntity
  8
0
370
     0
390
0
  6
Continuous
 62
   174
100
AcDbText
 10
-212.481794
 20
-920.264061
 30
0.0
 40
3.0
  1
13'
  7
Vcadd_Helvet
 72
     1
 11
-209.854163
 21
-920.264061
 31
0.0
100
AcDbText
  0
TEXT
  5
1A6
100
AcDbEntity
  8
0
370
     0
390
0
  6
Continuous
 62
   174
100
AcDbText
 10
-524.481794
 20
-920.264061
 30
0.0
 40
3.0
  1
13'
  7
Vcadd_Helvet
 72
     1
 11
-521.854163
 21
-920.264061
 31
0.0
100
AcDbText
  0
TEXT
  5
1A7
100
AcDbEntity
  8
0
370
     0
390
0
  6
Continuous
 62
   174
100
AcDbText
 10
-188.494721
 20
-920.264061
 30
0.0
 40
3.0
  1
15'
  7
Vcadd_Helvet
 72
     1
 11
-185.854163
 21
-920.264061
 31
0.0
100
AcDbText
  0
TEXT
  5
1A8
100
AcDbEntity
  8
0
370
     0
390
0
  6
Continuous
 62
   174
100
AcDbText
 10
-548.494721
 20
-920.264061
 30
0.0
 40
3.0
  1
15'
  7
Vcadd_Helvet
 72
     1
 11
-545.854163
 21
-920.264061
 31
0.0
100
AcDbText
  0
TEXT
  5
1A9
100
AcDbEntity
  8
0
370
     0
390
0
  6
Continuous
 62
   174
100
AcDbText
 10
-164.485535
 20
-920.264061
 30
0.0
 40
3.0
  1
17'
  7
Vcadd_Helvet
 72
     1
 11
-161.854163
 21
-920.264061
 31
0.0
100
AcDbText
  0
TEXT
  5
1AA
100
AcDbEntity
  8
0
370
     0
390
0
  6
Continuous
 62
   174
100
AcDbText
 10
-572.485535
 20
-920.264061
 30
0.0
 40
3.0
  1
17'
  7
Vcadd_Helvet
 72
     1
 11
-569.854163
 21
-920.264061
 31
0.0
100
AcDbText
  0
TEXT
  5
1AB
100
AcDbEntity
  8
0
370
     0
390
0
  6
Continuous
 62
   174
100
AcDbText
 10
-140.469815
 20
-920.264061
 30
0.0
 40
3.0
  1
19'
  7
Vcadd_Helvet
 72
     1
 11
-137.854163
 21
-920.264061
 31
0.0
100
AcDbText
  0
TEXT
  5
1AC
100
AcDbEntity
  8
0
370
     0
390
0
  6
Continuous
 62
   174
100
AcDbText
 10
-596.469815
 20
-920.264061
 30
0.0
 40
3.0
  1
19'
  7
Vcadd_Helvet
 72
     1
 11
-593.854163
 21
-920.264061
 31
0.0
100
AcDbText
  0
TEXT
  5
1AD
100
AcDbEntity
  8
0
370
     0
390
0
  6
Continuous
 62
   174
100
AcDbText
 10
-116.488016
 20
-920.264061
 30
0.0
 40
3.0
  1
21'
  7
Vcadd_Helvet
 72
     1
 11
-113.854163
 21
-920.264061
 31
0.0
100
AcDbText
  0
TEXT
  5
1AE
100
AcDbEntity
  8
0
370
     0
390
0
  6
Continuous
 62
   174
100
AcDbText
 10
-620.488016
 20
-920.264061
 30
0.0
 40
3.0
  1
21'
  7
Vcadd_Helvet
 72
     1
 11
-617.854163
 21
-920.264061
 31
0.0
100
AcDbText
  0
TEXT
  5
1AF
100
AcDbEntity
  8
0
370
     0
390
0
  6
Continuous
 62
   174
100
AcDbText
 10
-93.030711
 20
-920.264061
 30
0.0
 40
3.0
  1
23'
  7
Vcadd_Helvet
 72
     1
 11
-89.854163
 21
-920.264061
 31
0.0
100
AcDbText
  0
TEXT
  5
1B0
100
AcDbEntity
  8
0
370
     0
390
0
  6
Continuous
 62
   174
100
AcDbText
 10
-645.030711
 20
-920.264061
 30
0.0
 40
3.0
  1
23'
  7
Vcadd_Helvet
 72
     1
 11
-641.854163
 21
-920.264061
 31
0.0
100
AcDbText
  0
TEXT
  5
1B1
100
AcDbEntity
  8
0
370
     0
390
0
  6
Continuous
 62
   174
100
AcDbText
 10
-69.043638
 20
-920.264061
 30
0.0
 40
3.0
  1
25'
  7
Vcadd_Helvet
 72
     1
 11
-65.854163
 21
-920.264061
 31
0.0
100
AcDbText
  0
TEXT
  5
1B2
100
AcDbEntity
  8
0
370
     0
390
0
  6
Continuous
 62
   174
100
AcDbText
 10
-669.043638
 20
-920.264061
 30
0.0
 40
3.0
  1
25'
  7
Vcadd_Helvet
 72
     1
 11
-665.854163
 21
-920.264061
 31
0.0
100
AcDbText
  0
LINE
  5
1B3
100
AcDbEntity
  8
0
370
     0
390
0
  6
Continuous
 62
    94
100
AcDbLine
 10
-67.917126
 20
-848.82341
 30
0.0
 11
-67.968118
 21
-839.588842
 31
0.0
  0
LINE
  5
1B4
100
AcDbEntity
  8
0
370
     0
390
0
  6
Continuous
 62
    94
100
AcDbLine
 10
-663.791201
 20
-848.82341
 30
0.0
 11
-663.740208
 21
-839.588842
 31
0.0
  0
LINE
  5
1B5
100
AcDbEntity
  8
0
370
     0
390
0
  6
Continuous
 62
    94
100
AcDbLine
 10
-70.310646
 20
-857.386667
 30
0.0
 11
-67.917126
 21
-848.82341
 31
0.0
  0
LINE
  5
1B6
100
AcDbEntity
  8
0
370
     0
390
0
  6
Continuous
 62
    94
100
AcDbLine
 10
-661.39768
 20
-857.386667
 30
0.0
 11
-663.791201
 21
-848.82341
 31
0.0
  0
LINE
  5
1B7
100
AcDbEntity
  8
0
370
     0
390
0
  6
Continuous
 62
    94
100
AcDbLine
 10
-73.92222
 20
-856.377194
 30
0.0
 11
-70.310646
 21
-857.386667
 31
0.0
  0
LINE
  5
1B8
100
AcDbEntity
  8
0
370
     0
390
0
  6
Continuous
 62
    94
100
AcDbLine
 10
-73.227981
 20
-854.501552
 30
0.0
 11
-73.92222
 21
-856.377194
 31
0.0
  0
LINE
  5
1B9
100
AcDbEntity
  8
0
370
     0
390
0
  6
Continuous
 62
    94
100
AcDbLine
 10
-75.310007
 20
-853.912636
 30
0.0
 11
-73.227981
 21
-854.501552
 31
0.0
  0
LINE
  5
1BA
100
AcDbEntity
  8
0
370
     0
390
0
  6
Continuous
 62
    94
100
AcDbLine
 10
-73.41921
 20
-848.166999
 30
0.0
 11
-75.310007
 21
-853.912636
 31
0.0
  0
LINE
  5
1BB
100
AcDbEntity
  8
0
370
     0
390
0
  6
Continuous
 62
    94
100
AcDbLine
 10
-73.505403
 20
-842.118857
 30
0.0
 11
-73.41921
 21
-848.166999
 31
0.0
  0
LINE
  5
1BC
100
AcDbEntity
  8
0
370
     0
390
0
  6
Continuous
 62
    94
100
AcDbLine
 10
-71.514204
 20
-841.931443
 30
0.0
 11
-73.505403
 21
-842.118857
 31
0.0
  0
LINE
  5
1BD
100
AcDbEntity
  8
0
370
     0
390
0
  6
Continuous
 62
    94
100
AcDbLine
 10
-71.701617
 20
-839.940243
 30
0.0
 11
-71.514204
 21
-841.931443
 31
0.0
  0
LINE
  5
1BE
100
AcDbEntity
  8
0
370
     0
390
0
  6
Continuous
 62
    94
100
AcDbLine
 10
-67.968118
 20
-839.588842
 30
0.0
 11
-71.701617
 21
-839.940243
 31
0.0
  0
HATCH
  5
1BF
100
AcDbEntity
  8
0
370
     0
390
0
  6
Continuous
 62
    14
100
AcDbHatch
 10
0.0
 20
0.0
 30
0.0
210
0.0
220
0.0
230
1.0
  2
DASH
 70
     0
 71
     0
 91
        1
 92
        1
 93
       10
 72
     1
 10
-67.968118072177731
 20
-839.58884213138163
 11
-71.701617417568343
 21
-839.94024309604856
 72
     1
 10
-71.701617417568343
 20
-839.94024309604856
 11
-71.514203569746087
 21
-841.93144274692327
 72
     1
 10
-71.514203569746087
 20
-841.93144274692327
 11
-73.505403220621076
 21
-842.11885659474547
 72
     1
 10
-73.505403220621076
 20
-842.11885659474547
 11
-73.419209919926061
 21
-848.16699884136915
 72
     1
 10
-73.419209919926061
 20
-848.16699884136915
 11
-75.310006852707488
 21
-853.91263552318787
 72
     1
 10
-75.310006852707488
 20
-853.91263552318787
 11
-73.227980589850176
 21
-854.50155203264239
 72
     1
 10
-73.227980589850176
 20
-854.50155203264239
 11
-73.922219853327761
 21
-856.37719374817493
 72
     1
 10
-73.922219853327761
 20
-856.37719374817493
 11
-70.310646205483636
 21
-857.3866667721818
 72
     1
 10
-70.310646205483636
 20
-857.3866667721818
 11
-67.917125505114939
 21
-848.82341041817995
 72
     1
 10
-67.917125505114939
 20
-848.82341041817995
 11
-67.968118072177731
 21
-839.58884213138163
 97
        0
 75
     0
 76
     1
 52
45.0
 41
12.0
 77
     0
 78
     1
 53
45.0
 43
0.0
 44
0.0
 45
0.0000000000000002
 46
2.1213203435596424
 79
     2
 49
1.5
 49
-1.5
 98
        1
 10
0.0
 20
0.0
  0
HATCH
  5
1C0
100
AcDbEntity
  8
0
370
     0
390
0
  6
Continuous
 62
    14
100
AcDbHatch
 10
0.0
 20
0.0
 30
0.0
210
0.0
220
0.0
230
1.0
  2
DASH
 70
     0
 71
     0
 91
        1
 92
        1
 93
       10
 72
     1
 10
-663.74020841650292
 20
-839.58884213138163
 11
-660.00670907111225
 21
-839.94024309604856
 72
     1
 10
-660.00670907111225
 20
-839.94024309604856
 11
-660.19412291893457
 21
-841.93144274692327
 72
     1
 10
-660.19412291893457
 20
-841.93144274692327
 11
-658.20292326805952
 21
-842.11885659474547
 72
     1
 10
-658.20292326805952
 20
-842.11885659474547
 11
-658.28911656875459
 21
-848.16699884136915
 72
     1
 10
-658.28911656875459
 20
-848.16699884136915
 11
-656.39831963597317
 21
-853.91263552318787
 72
     1
 10
-656.39831963597317
 20
-853.91263552318787
 11
-658.48034589883048
 21
-854.50155203264239
 72
     1
 10
-658.48034589883048
 20
-854.50155203264239
 11
-657.78610663535289
 21
-856.37719374817493
 72
     1
 10
-657.78610663535289
 20
-856.37719374817493
 11
-661.39768028319702
 21
-857.3866667721818
 72
     1
 10
-661.39768028319702
 20
-857.3866667721818
 11
-663.79120098356566
 21
-848.82341041817995
 72
     1
 10
-663.79120098356566
 20
-848.82341041817995
 11
-663.74020841650292
 21
-839.58884213138163
 97
        0
 75
     0
 76
     1
 52
45.0
 41
12.0
 77
     0
 78
     1
 53
45.0
 43
0.0
 44
0.0
 45
0.0000000000000002
 46
2.1213203435596424
 79
     2
 49
1.5
 49
-1.5
 98
        1
 10
0.0
 20
0.0
  0
LINE
  5
1C1
100
AcDbEntity
  8
0
370
     0
390
0
  6
Continuous
 62
    94
100
AcDbLine
 10
-84.129386
 20
-731.454844
 30
0.0
 11
-83.234277
 21
-733.243357
 31
0.0
  0
LINE
  5
1C2
100
AcDbEntity
  8
0
370
     0
390
0
  6
Continuous
 62
    94
100
AcDbLine
 10
-80.775924
 20
-729.776514
 30
0.0
 11
-84.129386
 21
-731.454844
 31
0.0
  0
LINE
  5
1C3
100
AcDbEntity
  8
0
370
     0
390
0
  6
Continuous
 62
    94
100
AcDbLine
 10
-77.544573
 20
-738.442129
 30
0.0
 11
-80.775924
 21
-729.776514
 31
0.0
  0
LINE
  5
1C4
100
AcDbEntity
  8
0
370
     0
390
0
  6
Continuous
 62
    94
100
AcDbLine
 10
-654.163753
 20
-738.442129
 30
0.0
 11
-650.932402
 21
-729.776514
 31
0.0
  0
LINE
  5
1C5
100
AcDbEntity
  8
0
370
     0
390
0
  6
Continuous
 62
    94
100
AcDbLine
 10
-76.684322
 20
-747.225501
 30
0.0
 11
-77.544573
 21
-738.442129
 31
0.0
  0
LINE
  5
1C6
100
AcDbEntity
  8
0
370
     0
390
0
  6
Continuous
 62
    94
100
AcDbLine
 10
-655.024005
 20
-747.225501
 30
0.0
 11
-654.163753
 21
-738.442129
 31
0.0
  0
LINE
  5
1C7
100
AcDbEntity
  8
0
370
     0
390
0
  6
Continuous
 62
    94
100
AcDbLine
 10
-80.416464
 20
-747.59103
 30
0.0
 11
-76.684322
 21
-747.225501
 31
0.0
  0
LINE
  5
1C8
100
AcDbEntity
  8
0
370
     0
390
0
  6
Continuous
 62
    94
100
AcDbLine
 10
-80.447836
 20
-745.591276
 30
0.0
 11
-80.416464
 21
-747.59103
 31
0.0
  0
LINE
  5
1C9
100
AcDbEntity
  8
0
370
     0
390
0
  6
Continuous
 62
    94
100
AcDbLine
 10
-82.438312
 20
-745.786225
 30
0.0
 11
-80.447836
 21
-745.591276
 31
0.0
  0
LINE
  5
1CA
100
AcDbEntity
  8
0
370
     0
390
0
  6
Continuous
 62
    94
100
AcDbLine
 10
-82.754295
 20
-739.745728
 30
0.0
 11
-82.438312
 21
-745.786225
 31
0.0
  0
LINE
  5
1CB
100
AcDbEntity
  8
0
370
     0
390
0
  6
Continuous
 62
    94
100
AcDbLine
 10
-85.02279
 20
-734.138466
 30
0.0
 11
-82.754295
 21
-739.745728
 31
0.0
  0
LINE
  5
1CC
100
AcDbEntity
  8
0
370
     0
390
0
  6
Continuous
 62
    94
100
AcDbLine
 10
-83.234277
 20
-733.243357
 30
0.0
 11
-85.02279
 21
-734.138466
 31
0.0
  0
HATCH
  5
1CD
100
AcDbEntity
  8
0
370
     0
390
0
  6
Continuous
 62
    14
100
AcDbHatch
 10
0.0
 20
0.0
 30
0.0
210
0.0
220
0.0
230
1.0
  2
DASH
 70
     0
 71
     0
 91
        1
 92
        1
 93
       10
 72
     1
 10
-83.2342769715043
 20
-733.2433570359176
 11
-85.022790148041906
 21
-734.13846631268302
 72
     1
 10
-85.022790148041906
 20
-734.13846631268302
 11
-82.75429455626761
 21
-739.74572782527366
 72
     1
 10
-82.75429455626761
 20
-739.74572782527366
 11
-82.438311874565898
 21
-745.78622522742035
 72
     1
 10
-82.438311874565898
 20
-745.78622522742035
 11
-80.447835831916564
 21
-745.59127619911078
 72
     1
 10
-80.447835831916564
 20
-745.59127619911078
 11
-80.416464468605852
 21
-747.59103014336597
 72
     1
 10
-80.416464468605852
 20
-747.59103014336597
 11
-76.684321888638351
 21
-747.22550071528531
 72
     1
 10
-76.684321888638351
 20
-747.22550071528531
 11
-77.54457329347531
 21
-738.44212884198032
 72
     1
 10
-77.54457329347531
 20
-738.44212884198032
 11
-80.775924042261806
 21
-729.77651396544479
 72
     1
 10
-80.775924042261806
 20
-729.77651396544479
 11
-84.129386248269725
 21
-731.45484385938016
 72
     1
 10
-84.129386248269725
 20
-731.45484385938016
 11
-83.2342769715043
 21
-733.2433570359176
 97
        0
 75
     0
 76
     1
 52
45.0
 41
12.0
 77
     0
 78
     1
 53
45.0
 43
0.0
 44
0.0
 45
0.0000000000000002
 46
2.1213203435596424
 79
     2
 49
1.5
 49
-1.5
 98
        1
 10
0.0
 20
0.0
  0
HATCH
  5
1CE
100
AcDbEntity
  8
0
370
     0
390
0
  6
Continuous
 62
    14
100
AcDbHatch
 10
0.0
 20
0.0
 30
0.0
210
0.0
220
0.0
230
1.0
  2
DASH
 70
     0
 71
     0
 91
        1
 92
        1
 93
       10
 72
     1
 10
-648.47404951717635
 20
-733.2433570359176
 11
-646.68553634063869
 21
-734.13846631268302
 72
     1
 10
-646.68553634063869
 20
-734.13846631268302
 11
-648.95403193241305
 21
-739.74572782527366
 72
     1
 10
-648.95403193241305
 20
-739.74572782527366
 11
-649.27001461411464
 21
-745.78622522742035
 72
     1
 10
-649.27001461411464
 20
-745.78622522742035
 11
-651.26049065676398
 21
-745.59127619911078
 72
     1
 10
-651.26049065676398
 20
-745.59127619911078
 11
-651.29186202007475
 21
-747.59103014336597
 72
     1
 10
-651.29186202007475
 20
-747.59103014336597
 11
-655.02400460004219
 21
-747.22550071528531
 72
     1
 10
-655.02400460004219
 20
-747.22550071528531
 11
-654.16375319520535
 21
-738.44212884198032
 72
     1
 10
-654.16375319520535
 20
-738.44212884198032
 11
-650.93240244641879
 21
-729.77651396544479
 72
     1
 10
-650.93240244641879
 20
-729.77651396544479
 11
-647.57894024041093
 21
-731.45484385938016
 72
     1
 10
-647.57894024041093
 20
-731.45484385938016
 11
-648.47404951717635
 21
-733.2433570359176
 97
        0
 75
     0
 76
     1
 52
45.0
 41
12.0
 77
     0
 78
     1
 53
45.0
 43
0.0
 44
0.0
 45
0.0000000000000002
 46
2.1213203435596424
 79
     2
 49
1.5
 49
-1.5
 98
        1
 10
0.0
 20
0.0
  0
LINE
  5
1CF
100
AcDbEntity
  8
0
370
     0
390
0
  6
Continuous
 62
    94
100
AcDbLine
 10
-122.317581
 20
-646.823215
 30
0.0
 11
-126.327067
 21
-638.887075
 31
0.0
  0
LINE
  5
1D0
100
AcDbEntity
  8
0
370
     0
390
0
  6
Continuous
 62
    94
100
AcDbLine
 10
-609.390746
 20
-646.823215
 30
0.0
 11
-605.381259
 21
-638.887075
 31
0.0
  0
LINE
  5
1D1
100
AcDbEntity
  8
0
370
     0
390
0
  6
Continuous
 62
    94
100
AcDbLine
 10
-126.327067
 20
-638.887075
 30
0.0
 11
-132.593982
 21
-632.10433
 31
0.0
  0
LINE
  5
1D2
100
AcDbEntity
  8
0
370
     0
390
0
  6
Continuous
 62
    94
100
AcDbLine
 10
-605.381259
 20
-638.887075
 30
0.0
 11
-599.114344
 21
-632.10433
 31
0.0
  0
POLYLINE
  5
1D3
100
AcDbEntity
  8
0
370
     0
390
0
  6
Continuous
 62
    94
100
AcDb2dPolyline
 66
     1
 10
0.0
 20
0.0
 30
0.0
 70
   128
  0
VERTEX
  5
1D4
100
AcDbEntity
  8
0
370
     0
390
0
  6
Continuous
 62
    94
100
AcDbVertex
100
AcDb2dVertex
 10
-134.97507
 20
-637.707269
 30
0.0
  0
VERTEX
  5
1D5
100
AcDbEntity
  8
0
370
     0
390
0
  6
Continuous
 62
    94
100
AcDbVertex
100
AcDb2dVertex
 10
-130.831605
 20
-642.113986
 30
0.0
  0
VERTEX
  5
1D6
100
AcDbEntity
  8
0
370
     0
390
0
  6
Continuous
 62
    94
100
AcDbVertex
100
AcDb2dVertex
 10
-128.351651
 20
-647.630985
 30
0.0
  0
VERTEX
  5
1D7
100
AcDbEntity
  8
0
370
     0
390
0
  6
Continuous
 62
    94
100
AcDbVertex
100
AcDb2dVertex
 10
-126.417398
 20
-646.661283
 30
0.0
  0
SEQEND
  5
1D8
100
AcDbEntity
  8
0
370
     0
390
0
  6
Continuous
 62
    94
  0
HATCH
  5
1D9
100
AcDbEntity
  8
0
370
     0
390
0
  6
Continuous
 62
    14
100
AcDbHatch
 10
0.0
 20
0.0
 30
0.0
210
0.0
220
0.0
230
1.0
  2
DASH
 70
     0
 71
     0
 91
        1
 92
        1
 93
       10
 72
     1
 10
-132.59398238656877
 20
-632.10433025797533
 11
-135.11308489804003
 21
-634.88221120155436
 72
     1
 10
-135.11308489804003
 20
-634.88221120155436
 11
-133.63154839479796
 21
-636.22573254100553
 72
     1
 10
-133.63154839479796
 20
-636.22573254100553
 11
-134.97506973424936
 21
-637.7072690442476
 72
     1
 10
-134.97506973424936
 20
-637.7072690442476
 11
-130.83160458702775
 21
-642.11398556499626
 72
     1
 10
-130.83160458702775
 20
-642.11398556499626
 11
-128.35165120011811
 21
-647.63098521328629
 72
     1
 10
-128.35165120011811
 20
-647.63098521328629
 11
-126.41739835057274
 21
-646.66128323413932
 72
     1
 10
-126.41739835057274
 20
-646.66128323413932
 11
-125.66466651063581
 21
-648.51422542890555
 72
     1
 10
-125.66466651063581
 20
-648.51422542890555
 11
-122.31758066210307
 21
-646.82321498465876
 72
     1
 10
-122.31758066210307
 20
-646.82321498465876
 11
-126.32706720269266
 21
-638.88707496521124
 72
     1
 10
-126.32706720269266
 20
-638.88707496521124
 11
-132.59398238656877
 21
-632.10433025797533
 97
        0
 75
     0
 76
     1
 52
45.0
 41
12.0
 77
     0
 78
     1
 53
45.0
 43
0.0
 44
0.0
 45
0.0000000000000002
 46
2.1213203435596424
 79
     2
 49
1.5
 49
-1.5
 98
        1
 10
0.0
 20
0.0
  0
HATCH
  5
1DA
100
AcDbEntity
  8
0
370
     0
390
0
  6
Continuous
 62
    14
100
AcDbHatch
 10
0.0
 20
0.0
 30
0.0
210
0.0
220
0.0
230
1.0
  2
DASH
 70
     0
 71
     0
 91
        1
 92
        1
 93
       10
 72
     1
 10
-599.11434410211177
 20
-632.10433025797533
 11
-596.59524159064063
 21
-634.88221120155436
 72
     1
 10
-596.59524159064063
 20
-634.88221120155436
 11
-598.07677809388269
 21
-636.22573254100575
 72
     1
 10
-598.07677809388269
 20
-636.22573254100575
 11
-596.7332567544313
 21
-637.70726904424782
 72
     1
 10
-596.7332567544313
 20
-637.70726904424782
 11
-600.8767219016529
 21
-642.11398556499648
 72
     1
 10
-600.8767219016529
 20
-642.11398556499648
 11
-603.35667528856243
 21
-647.63098521328629
 72
     1
 10
-603.35667528856243
 20
-647.63098521328629
 11
-605.2909281381078
 21
-646.66128323413932
 72
     1
 10
-605.2909281381078
 20
-646.66128323413932
 11
-606.04365997804484
 21
-648.51422542890555
 72
     1
 10
-606.04365997804484
 20
-648.51422542890555
 11
-609.39074582657759
 21
-646.82321498465876
 72
     1
 10
-609.39074582657759
 20
-646.82321498465876
 11
-605.38125928598788
 21
-638.88707496521124
 72
     1
 10
-605.38125928598788
 20
-638.88707496521124
 11
-599.11434410211177
 21
-632.10433025797533
 97
        0
 75
     0
 76
     1
 52
45.0
 41
12.0
 77
     0
 78
     1
 53
45.0
 43
0.0
 44
0.0
 45
0.0000000000000002
 46
2.1213203435596424
 79
     2
 49
1.5
 49
-1.5
 98
        1
 10
0.0
 20
0.0
  0
LINE
  5
1DB
100
AcDbEntity
  8
0
370
     0
390
0
  6
Continuous
 62
    94
100
AcDbLine
 10
-201.333084
 20
-569.799475
 30
0.0
 11
-207.942165
 21
-563.851505
 31
0.0
  0
LINE
  5
1DC
100
AcDbEntity
  8
0
370
     0
390
0
  6
Continuous
 62
    94
100
AcDbLine
 10
-530.375243
 20
-569.799475
 30
0.0
 11
-523.766161
 21
-563.851505
 31
0.0
  0
LINE
  5
1DD
100
AcDbEntity
  8
0
370
     0
390
0
  6
Continuous
 62
    94
100
AcDbLine
 10
-207.942165
 20
-563.851505
 30
0.0
 11
-216.238474
 21
-559.795509
 31
0.0
  0
LINE
  5
1DE
100
AcDbEntity
  8
0
370
     0
390
0
  6
Continuous
 62
    94
100
AcDbLine
 10
-523.766161
 20
-563.851505
 30
0.0
 11
-515.469852
 21
-559.795509
 31
0.0
  0
POLYLINE
  5
1DF
100
AcDbEntity
  8
0
370
     0
390
0
  6
Continuous
 62
    94
100
AcDb2dPolyline
 66
     1
 10
0.0
 20
0.0
 30
0.0
 70
   128
  0
VERTEX
  5
1E0
100
AcDbEntity
  8
0
370
     0
390
0
  6
Continuous
 62
    94
100
AcDbVertex
100
AcDb2dVertex
 10
-206.66617
 20
-572.735578
 30
0.0
  0
VERTEX
  5
1E1
100
AcDbEntity
  8
0
370
     0
390
0
  6
Continuous
 62
    94
100
AcDbVertex
100
AcDb2dVertex
 10
-205.213768
 20
-571.131775
 30
0.0
  0
VERTEX
  5
1E2
100
AcDbEntity
  8
0
370
     0
390
0
  6
Continuous
 62
    94
100
AcDbVertex
100
AcDb2dVertex
 10
-203.841654
 20
-572.586871
 30
0.0
  0
VERTEX
  5
1E3
100
AcDbEntity
  8
0
370
     0
390
0
  6
Continuous
 62
    94
100
AcDbVertex
100
AcDb2dVertex
 10
-201.333084
 20
-569.799475
 30
0.0
  0
SEQEND
  5
1E4
100
AcDbEntity
  8
0
370
     0
390
0
  6
Continuous
 62
    94
  0
HATCH
  5
1E5
100
AcDbEntity
  8
0
370
     0
390
0
  6
Continuous
 62
    14
100
AcDbHatch
 10
0.0
 20
0.0
 30
0.0
210
0.0
220
0.0
230
1.0
  2
DASH
 70
     0
 71
     0
 91
        1
 92
        1
 93
       10
 72
     1
 10
-216.23847449987682
 20
-559.79550935854104
 11
-217.5819326923251
 21
-563.29659777289794
 72
     1
 10
-217.5819326923251
 20
-563.29659777289794
 11
-215.71468553800145
 21
-564.01310880887036
 72
     1
 10
-215.71468553800145
 20
-564.01310880887036
 11
-216.43119657397386
 21
-565.88035596319401
 72
     1
 10
-216.43119657397386
 20
-565.88035596319401
 11
-210.97411296376833
 21
-568.48951145716251
 72
     1
 10
-210.97411296376833
 20
-568.48951145716251
 11
-206.66616962532839
 21
-572.7355776499187
 72
     1
 10
-206.66616962532839
 20
-572.7355776499187
 11
-205.21376761176998
 21
-571.13177454312927
 72
     1
 10
-205.21376761176998
 20
-571.13177454312927
 11
-203.84165439377944
 21
-572.58687086881196
 72
     1
 10
-203.84165439377944
 20
-572.58687086881196
 11
-201.33308397148971
 21
-569.7994752319471
 72
     1
 10
-201.33308397148971
 20
-569.7994752319471
 11
-207.94216514383351
 21
-563.85150526019879
 72
     1
 10
-207.94216514383351
 20
-563.85150526019879
 11
-216.23847449987682
 21
-559.79550935854104
 97
        0
 75
     0
 76
     1
 52
45.0
 41
12.0
 77
     0
 78
     1
 53
45.0
 43
0.0
 44
0.0
 45
0.0000000000000002
 46
2.1213203435596424
 79
     2
 49
1.5
 49
-1.5
 98
        1
 10
0.0
 20
0.0
  0
HATCH
  5
1E6
100
AcDbEntity
  8
0
370
     0
390
0
  6
Continuous
 62
    14
100
AcDbHatch
 10
0.0
 20
0.0
 30
0.0
210
0.0
220
0.0
230
1.0
  2
DASH
 70
     0
 71
     0
 91
        1
 92
        1
 93
       10
 72
     1
 10
-515.46985198880384
 20
-559.79550935854115
 11
-514.1263937963555
 21
-563.29659777289817
 72
     1
 10
-514.1263937963555
 20
-563.29659777289817
 11
-515.99364095067915
 21
-564.01310880887058
 72
     1
 10
-515.99364095067915
 20
-564.01310880887058
 11
-515.27712991470673
 21
-565.88035596319401
 72
     1
 10
-515.27712991470673
 20
-565.88035596319401
 11
-520.73421352491232
 21
-568.48951145716251
 72
     1
 10
-520.73421352491232
 20
-568.48951145716251
 11
-525.04215686335215
 21
-572.7355776499187
 72
     1
 10
-525.04215686335215
 20
-572.7355776499187
 11
-526.49455887691056
 21
-571.13177454312927
 72
     1
 10
-526.49455887691056
 20
-571.13177454312927
 11
-527.86667209490111
 21
-572.58687086881196
 72
     1
 10
-527.86667209490111
 20
-572.58687086881196
 11
-530.37524251719083
 21
-569.7994752319471
 72
     1
 10
-530.37524251719083
 20
-569.7994752319471
 11
-523.76616134484709
 21
-563.85150526019879
 72
     1
 10
-523.76616134484709
 20
-563.85150526019879
 11
-515.46985198880384
 21
-559.79550935854115
 97
        0
 75
     0
 76
     1
 52
45.0
 41
12.0
 77
     0
 78
     1
 53
45.0
 43
0.0
 44
0.0
 45
0.0000000000000002
 46
2.1213203435596424
 79
     2
 49
1.5
 49
-1.5
 98
        1
 10
0.0
 20
0.0
  0
LINE
  5
1E7
100
AcDbEntity
  8
0
370
     0
390
0
  6
Continuous
 62
    94
100
AcDbLine
 10
-302.854163
 20
-526.55876
 30
0.0
 11
-311.15545
 21
-523.373335
 31
0.0
  0
LINE
  5
1E8
100
AcDbEntity
  8
0
370
     0
390
0
  6
Continuous
 62
    94
100
AcDbLine
 10
-428.854163
 20
-526.55876
 30
0.0
 11
-420.552876
 21
-523.373335
 31
0.0
  0
LINE
  5
1E9
100
AcDbEntity
  8
0
370
     0
390
0
  6
Continuous
 62
    94
100
AcDbLine
 10
-320.354163
 20
-522.55876
 30
0.0
 11
-320.354163
 21
-526.30876
 31
0.0
  0
LINE
  5
1EA
100
AcDbEntity
  8
0
370
     0
390
0
  6
Continuous
 62
    94
100
AcDbLine
 10
-311.15545
 20
-523.373335
 30
0.0
 11
-320.354163
 21
-522.55876
 31
0.0
  0
LINE
  5
1EB
100
AcDbEntity
  8
0
370
     0
390
0
  6
Continuous
 62
    94
100
AcDbLine
 10
-420.552876
 20
-523.373335
 30
0.0
 11
-411.354163
 21
-522.55876
 31
0.0
  0
POLYLINE
  5
1EC
100
AcDbEntity
  8
0
370
     0
390
0
  6
Continuous
 62
    94
100
AcDb2dPolyline
 66
     1
 10
0.0
 20
0.0
 30
0.0
 70
   128
  0
VERTEX
  5
1ED
100
AcDbEntity
  8
0
370
     0
390
0
  6
Continuous
 62
    94
100
AcDbVertex
100
AcDb2dVertex
 10
-318.354163
 20
-528.30876
 30
0.0
  0
VERTEX
  5
1EE
100
AcDbEntity
  8
0
370
     0
390
0
  6
Continuous
 62
    94
100
AcDbVertex
100
AcDb2dVertex
 10
-312.324557
 20
-528.789699
 30
0.0
  0
VERTEX
  5
1EF
100
AcDbEntity
  8
0
370
     0
390
0
  6
Continuous
 62
    94
100
AcDbVertex
100
AcDb2dVertex
 10
-306.781383
 20
-531.210582
 30
0.0
  0
VERTEX
  5
1F0
100
AcDbEntity
  8
0
370
     0
390
0
  6
Continuous
 62
    94
100
AcDbVertex
100
AcDb2dVertex
 10
-306.064871
 20
-529.343335
 30
0.0
  0
VERTEX
  5
1F1
100
AcDbEntity
  8
0
370
     0
390
0
  6
Continuous
 62
    94
100
AcDbVertex
100
AcDb2dVertex
 10
-304.197624
 20
-530.059847
 30
0.0
  0
SEQEND
  5
1F2
100
AcDbEntity
  8
0
370
     0
390
0
  6
Continuous
 62
    94
  0
HATCH
  5
1F3
100
AcDbEntity
  8
0
370
     0
390
0
  6
Continuous
 62
    14
100
AcDbHatch
 10
0.0
 20
0.0
 30
0.0
210
0.0
220
0.0
230
1.0
  2
DASH
 70
     0
 71
     0
 91
        1
 92
        1
 93
       10
 72
     1
 10
-320.35416324434027
 20
-526.308759971173
 11
-318.35416324434027
 21
-526.308759971173
 72
     1
 10
-318.35416324434027
 20
-526.308759971173
 11
-318.35416324434027
 21
-528.308759971173
 72
     1
 10
-318.35416324434027
 20
-528.308759971173
 11
-312.32455697031071
 21
-528.78969874135487
 72
     1
 10
-312.32455697031071
 20
-528.78969874135487
 11
-306.78138285717648
 21
-531.21058177693385
 72
     1
 10
-306.78138285717648
 20
-531.21058177693385
 11
-306.06487052464161
 21
-529.34333512013541
 72
     1
 10
-306.06487052464161
 20
-529.34333512013541
 11
-304.19762386784305
 21
-530.05984745267028
 72
     1
 10
-304.19762386784305
 20
-530.05984745267028
 11
-302.85416324434027
 21
-526.558759971173
 72
     1
 10
-302.85416324434027
 20
-526.558759971173
 11
-311.15545031341185
 21
-523.37333476810977
 72
     1
 10
-311.15545031341185
 20
-523.37333476810977
 11
-320.35416324434027
 21
-522.558759971173
 72
     1
 10
-320.35416324434027
 20
-522.558759971173
 11
-320.35416324434027
 21
-526.308759971173
 97
        0
 75
     0
 76
     1
 52
45.0
 41
12.0
 77
     0
 78
     1
 53
45.0
 43
0.0
 44
0.0
 45
0.0000000000000002
 46
2.1213203435596424
 79
     2
 49
1.5
 49
-1.5
 98
        1
 10
0.0
 20
0.0
  0
HATCH
  5
1F4
100
AcDbEntity
  8
0
370
     0
390
0
  6
Continuous
 62
    14
100
AcDbHatch
 10
0.0
 20
0.0
 30
0.0
210
0.0
220
0.0
230
1.0
  2
DASH
 70
     0
 71
     0
 91
        1
 92
        1
 93
       10
 72
     1
 10
-411.35416324434027
 20
-526.308759971173
 11
-413.35416324434027
 21
-526.308759971173
 72
     1
 10
-413.35416324434027
 20
-526.308759971173
 11
-413.35416324434027
 21
-528.308759971173
 72
     1
 10
-413.35416324434027
 20
-528.308759971173
 11
-419.38376951836983
 21
-528.78969874135498
 72
     1
 10
-419.38376951836983
 20
-528.78969874135498
 11
-424.92694363150406
 21
-531.21058177693396
 72
     1
 10
-424.92694363150406
 20
-531.21058177693396
 11
-425.64345596403894
 21
-529.34333512013541
 72
     1
 10
-425.64345596403894
 20
-529.34333512013541
 11
-427.51070262083749
 21
-530.0598474526704
 72
     1
 10
-427.51070262083749
 20
-530.0598474526704
 11
-428.85416324434027
 21
-526.558759971173
 72
     1
 10
-428.85416324434027
 20
-526.558759971173
 11
-420.55287617526869
 21
-523.37333476810977
 72
     1
 10
-420.55287617526869
 20
-523.37333476810977
 11
-411.35416324434027
 21
-522.558759971173
 72
     1
 10
-411.35416324434027
 20
-522.558759971173
 11
-411.35416324434027
 21
-526.308759971173
 97
        0
 75
     0
 76
     1
 52
45.0
 41
12.0
 77
     0
 78
     1
 53
45.0
 43
0.0
 44
0.0
 45
0.0000000000000002
 46
2.1213203435596424
 79
     2
 49
1.5
 49
-1.5
 98
        1
 10
0.0
 20
0.0
  0
TEXT
  5
1F5
100
AcDbEntity
  8
0
370
     0
390
0
  6
Continuous
 62
   174
100
AcDbText
 10
-123.237382
 20
-965.878203
 30
0.0
 40
3.0
  1
Booth
  7
Vcadd_Helvet
 72
     1
 11
-116.736518
 21
-965.878203
 31
0.0
100
AcDbText
  0
ELLIPSE
  5
1F6
100
AcDbEntity
  8
hidden positions
370
     0
390
0
  6
Continuous
 62
    94
100
AcDbEllipse
 10
-505.854163
 20
-994.55876
 30
0.0
 11
0.0
 21
0.9999999999998863
 31
0.0
210
0.0
220
0.0
230
1.0
 40
0.5
 41
0.0
 42
6.2831853071795862
  0
ELLIPSE
  5
1F7
100
AcDbEntity
  8
hidden positions
370
     0
390
0
  6
Continuous
 62
    94
100
AcDbEllipse
 10
-237.854163
 20
-994.55876
 30
0.0
 11
0.0
 21
0.9999999999998863
 31
0.0
210
0.0
220
0.0
230
1.0
 40
0.5
 41
0.0
 42
6.2831853071795862
  0
CIRCLE
  5
1F8
100
AcDbEntity
  8
0
370
     0
390
0
  6
Continuous
 62
    94
100
AcDbCircle
 10
-351.854163
 20
-996.55876
 30
0.0
 40
1.0
  0
CIRCLE
  5
1F9
100
AcDbEntity
  8
0
370
     0
390
0
  6
Continuous
 62
    94
100
AcDbCircle
 10
-418.854163
 20
-996.55876
 30
0.0
 40
1.0
  0
CIRCLE
  5
1FA
100
AcDbEntity
  8
0
370
     0
390
0
  6
Continuous
 62
    94
100
AcDbCircle
 10
-502.854163
 20
-996.55876
 30
0.0
 40
1.0
  0
CIRCLE
  5
1FB
100
AcDbEntity
  8
0
370
     0
390
0
  6
Continuous
 62
    94
100
AcDbCircle
 10
-267.854163
 20
-996.55876
 30
0.0
 40
1.0
  0
INSERT
  5
1FC
100
AcDbEntity
  8
0
370
     0
390
0
  6
Continuous
 62
    94
100
AcDbBlockReference
  2
hanging position
 10
-351.854163
 20
-955.161829
 30
0.0
 41
1.5
 42
1.5
  0
INSERT
  5
1FD
100
AcDbEntity
  8
0
370
     0
390
0
  6
Continuous
 62
    94
100
AcDbBlockReference
  2
hanging position
 10
-418.854163
 20
-955.161829
 30
0.0
 41
1.5
 42
1.5
  0
INSERT
  5
1FE
100
AcDbEntity
  8
0
370
     0
390
0
  6
Continuous
 62
    94
100
AcDbBlockReference
  2
hanging position
 10
-502.854163
 20
-955.161829
 30
0.0
 41
1.5
 42
1.5
  0
INSERT
  5
1FF
100
AcDbEntity
  8
0
370
     0
390
0
  6
Continuous
 62
    94
100
AcDbBlockReference
  2
hanging position
 10
-267.854163
 20
-955.161829
 30
0.0
 41
1.5
 42
1.5
  0
TEXT
  5
200
100
AcDbEntity
  8
0
370
     0
390
0
  6
Continuous
 62
   174
100
AcDbText
 10
-270.036977
 20
-950.933524
 30
0.0
 40
3.0
  1
#1
  7
Vcadd_Helvet
 72
     1
 11
-267.854163
 21
-950.933524
 31
0.0
100
AcDbText
  0
TEXT
  5
201
100
AcDbEntity
  8
0
370
     0
390
0
  6
Continuous
 62
   174
100
AcDbText
 10
-276.892193
 20
-955.433524
 30
0.0
 40
3.0
  1
Balcony
  7
Vcadd_Helvet
 72
     1
 11
-267.854163
 21
-955.433524
 31
0.0
100
AcDbText
  0
TEXT
  5
202
100
AcDbEntity
  8
0
370
     0
390
0
  6
Continuous
 62
   174
100
AcDbText
 10
-274.093929
 20
-959.933524
 30
0.0
 40
3.0
  1
Boom
  7
Vcadd_Helvet
 72
     1
 11
-267.854163
 21
-959.933524
 31
0.0
100
AcDbText
  0
TEXT
  5
203
100
AcDbEntity
  8
0
370
     0
390
0
  6
Continuous
 62
   174
100
AcDbText
 10
-354.585893
 20
-950.933524
 30
0.0
 40
3.0
  1
#2
  7
Vcadd_Helvet
 72
     1
 11
-351.854163
 21
-950.933524
 31
0.0
100
AcDbText
  0
TEXT
  5
204
100
AcDbEntity
  8
0
370
     0
390
0
  6
Continuous
 62
   174
100
AcDbText
 10
-360.892193
 20
-955.433524
 30
0.0
 40
3.0
  1
Balcony
  7
Vcadd_Helvet
 72
     1
 11
-351.854163
 21
-955.433524
 31
0.0
100
AcDbText
  0
TEXT
  5
205
100
AcDbEntity
  8
0
370
     0
390
0
  6
Continuous
 62
   174
100
AcDbText
 10
-358.093929
 20
-959.933524
 30
0.0
 40
3.0
  1
Boom
  7
Vcadd_Helvet
 72
     1
 11
-351.854163
 21
-959.933524
 31
0.0
100
AcDbText
  0
TEXT
  5
206
100
AcDbEntity
  8
0
370
     0
390
0
  6
Continuous
 62
   174
100
AcDbText
 10
-421.579672
 20
-950.933524
 30
0.0
 40
3.0
  1
#3
  7
Vcadd_Helvet
 72
     1
 11
-418.854163
 21
-950.933524
 31
0.0
100
AcDbText
  0
TEXT
  5
207
100
AcDbEntity
  8
0
370
     0
390
0
  6
Continuous
 62
   174
100
AcDbText
 10
-427.892193
 20
-955.433524
 30
0.0
 40
3.0
  1
Balcony
  7
Vcadd_Helvet
 72
     1
 11
-418.854163
 21
-955.433524
 31
0.0
100
AcDbText
  0
TEXT
  5
208
100
AcDbEntity
  8
0
370
     0
390
0
  6
Continuous
 62
   174
100
AcDbText
 10
-425.093929
 20
-959.933524
 30
0.0
 40
3.0
  1
Boom
  7
Vcadd_Helvet
 72
     1
 11
-418.854163
 21
-959.933524
 31
0.0
100
AcDbText
  0
TEXT
  5
209
100
AcDbEntity
  8
0
370
     0
390
0
  6
Continuous
 62
   174
100
AcDbText
 10
-505.628429
 20
-950.933524
 30
0.0
 40
3.0
  1
#4
  7
Vcadd_Helvet
 72
     1
 11
-502.854163
 21
-950.933524
 31
0.0
100
AcDbText
  0
TEXT
  5
20A
100
AcDbEntity
  8
0
370
     0
390
0
  6
Continuous
 62
   174
100
AcDbText
 10
-511.892193
 20
-955.433524
 30
0.0
 40
3.0
  1
Balcony
  7
Vcadd_Helvet
 72
     1
 11
-502.854163
 21
-955.433524
 31
0.0
100
AcDbText
  0
TEXT
  5
20B
100
AcDbEntity
  8
0
370
     0
390
0
  6
Continuous
 62
   174
100
AcDbText
 10
-509.093929
 20
-959.933524
 30
0.0
 40
3.0
  1
Boom
  7
Vcadd_Helvet
 72
     1
 11
-502.854163
 21
-959.933524
 31
0.0
100
AcDbText
  0
INSERT
  5
20C
100
AcDbEntity
  8
0
370
     0
390
0
  6
Continuous
 62
    94
100
AcDbBlockReference
  2
hanging position
 10
-201.772568
 20
-983.267652
 30
0.0
 41
1.5
 42
1.5
  0
TEXT
  5
20D
100
AcDbEntity
  8
0
370
     0
390
0
  6
Continuous
 62
   174
100
AcDbText
 10
-210.810598
 20
-983.267652
 30
0.0
 40
3.0
  1
Balcony
  7
Vcadd_Helvet
 72
     1
 11
-201.772568
 21
-983.267652
 31
0.0
100
AcDbText
  0
TEXT
  5
20E
100
AcDbEntity
  8
0
370
     0
390
0
  6
Continuous
 62
   174
100
AcDbText
 10
-205.802578
 20
-987.767652
 30
0.0
 40
3.0
  1
Rail
  7
Vcadd_Helvet
 72
     1
 11
-201.772568
 21
-987.767652
 31
0.0
100
AcDbText
  0
TEXT
  5
20F
100
AcDbEntity
  8
0
370
     0
390
0
  6
Continuous
 62
   174
100
AcDbText
 10
-147.918256
 20
-577.674168
 30
0.0
 40
2.5
  1
#3 Electric
  7
Vcadd_Helvet
 72
     1
 11
-137.281787
 21
-577.674168
 31
0.0
100
AcDbText
  0
TEXT
  5
210
100
AcDbEntity
  8
0
370
     0
390
0
  6
Continuous
 62
   174
100
AcDbText
 10
-105.97781
 20
-786.65957
 30
0.0
 40
2.5
  1
#1 Electric
  7
Vcadd_Helvet
 72
     1
 11
-95.793587
 21
-786.65957
 31
0.0
100
AcDbText
  0
INSERT
  5
280
100
AcDbEntity
  8
0
370
     0
390
0
  6
Continuous
 62
    94
100
AcDbBlockReference
  2
hanging position oval
 10
-137.281787
 20
-580.674168
 30
0.0
  0
INSERT
  5
281
100
AcDbEntity
  8
0
370
     0
390
0
  6
Continuous
 62
    94
100
AcDbBlockReference
  2
hanging position oval
 10
-95.793587
 20
-789.65957
 30
0.0
  0
ARC
  5
282
100
AcDbEntity
  8
drapes
370
     0
390
0
  6
Continuous
 62
   134
100
AcDbCircle
 10
-396.354163
 20
-517.55876
 30
0.0
 40
1.0
100
AcDbArc
 50
180.000006
 51
359.999997
  0
LINE
  5
283
100
AcDbEntity
  8
hidden positions
370
     0
390
0
  6
DOT
 62
    54
100
AcDbLine
 10
-237.854163
 20
-995.55876
 30
0.0
 11
-288.854163
 21
-995.55876
 31
0.0
  0
LINE
  5
284
100
AcDbEntity
  8
hidden positions
370
     0
390
0
  6
DOT
 62
    54
100
AcDbLine
 10
-298.854163
 20
-995.55876
 30
0.0
 11
-360.854163
 21
-995.55876
 31
0.0
  0
LINE
  5
285
100
AcDbEntity
  8
hidden positions
370
     0
390
0
  6
DOT
 62
    54
100
AcDbLine
 10
-237.854163
 20
-994.55876
 30
0.0
 11
-288.854163
 21
-994.55876
 31
0.0
  0
LINE
  5
286
100
AcDbEntity
  8
hidden positions
370
     0
390
0
  6
DOT
 62
    54
100
AcDbLine
 10
-298.854163
 20
-994.55876
 30
0.0
 11
-360.854163
 21
-994.55876
 31
0.0
  0
LINE
  5
287
100
AcDbEntity
  8
hidden positions
370
     0
390
0
  6
DOT
 62
    54
100
AcDbLine
 10
-237.854163
 20
-993.55876
 30
0.0
 11
-288.854163
 21
-993.55876
 31
0.0
  0
LINE
  5
288
100
AcDbEntity
  8
hidden positions
370
     0
390
0
  6
DOT
 62
    54
100
AcDbLine
 10
-298.854163
 20
-993.55876
 30
0.0
 11
-360.854163
 21
-993.55876
 31
0.0
  0
LINE
  5
289
100
AcDbEntity
  8
hidden positions
370
     0
390
0
  6
DOT
 62
    54
100
AcDbLine
 10
-460.854163
 20
-995.55876
 30
0.0
 11
-505.854163
 21
-995.55876
 31
0.0
  0
LINE
  5
28A
100
AcDbEntity
  8
hidden positions
370
     0
390
0
  6
DOT
 62
    54
100
AcDbLine
 10
-460.854163
 20
-994.55876
 30
0.0
 11
-505.354163
 21
-994.55876
 31
0.0
  0
LINE
  5
28B
100
AcDbEntity
  8
hidden positions
370
     0
390
0
  6
DOT
 62
    54
100
AcDbLine
 10
-460.854163
 20
-993.55876
 30
0.0
 11
-505.854163
 21
-993.55876
 31
0.0
  0
INSERT
  5
28C
100
AcDbEntity
  8
drapes
370
     0
390
0
  6
Continuous
 62
    94
100
AcDbBlockReference
  2
DRAPE
 10
-663.947841
 20
-788.56997
 30
0.0
 41
-1.0
 42
1.0
 50
354.61
  0
INSERT
  5
28D
100
AcDbEntity
  8
drapes
370
     0
390
0
  6
Continuous
 62
    94
100
AcDbBlockReference
  2
DRAPE
 10
-662.820426
 20
-776.623049
 30
0.0
 41
-1.0
 42
1.0
 50
354.61
  0
TEXT
  5
28E
100
AcDbEntity
  8
0
370
     0
390
0
  6
Continuous
 62
   174
100
AcDbText
 10
-103.042282
 20
-789.65957
 30
0.0
 40
1.75
  1
15'-4" Trim
  7
Vcadd_Helvet
 72
     1
 11
-95.793587
 21
-789.65957
 31
0.0
100
AcDbText
  0
TEXT
  5
28F
100
AcDbEntity
  8
0
370
     0
390
0
  6
Continuous
 62
   174
100
AcDbText
 10
-144.530482
 20
-580.674168
 30
0.0
 40
1.75
  1
15'-4" Trim
  7
Vcadd_Helvet
 72
     1
 11
-137.281787
 21
-580.674168
 31
0.0
100
AcDbText
  0
INSERT
  5
299
100
AcDbEntity
  8
0
370
     0
390
0
  6
Continuous
 62
    94
100
AcDbBlockReference
  2
pipe slash
 10
-538.354163
 20
-836.039795
 30
0.0
 41
-1.0
  0
LINE
  5
29A
100
AcDbEntity
  8
0
370
     0
390
0
  6
Continuous
 62
    94
100
AcDbLine
 10
-536.354163
 20
-774.55876
 30
0.0
 11
-536.354163
 21
-839.503897
 31
0.0
  0
POLYLINE
  5
29B
100
AcDbEntity
  8
0
370
     0
390
0
  6
Continuous
 62
    94
100
AcDb2dPolyline
 66
     1
 10
0.0
 20
0.0
 30
0.0
 70
   128
  0
VERTEX
  5
29C
100
AcDbEntity
  8
0
370
     0
390
0
  6
Continuous
 62
    94
100
AcDbVertex
100
AcDb2dVertex
 10
-536.354163
 20
-774.55876
 30
0.0
  0
VERTEX
  5
29D
100
AcDbEntity
  8
0
370
     0
390
0
  6
Continuous
 62
    94
100
AcDbVertex
100
AcDb2dVertex
 10
-540.354163
 20
-774.55876
 30
0.0
  0
VERTEX
  5
29E
100
AcDbEntity
  8
0
370
     0
390
0
  6
Continuous
 62
    94
100
AcDbVertex
100
AcDb2dVertex
 10
-540.369285
 20
-832.548733
 30
0.0
  0
SEQEND
  5
29F
100
AcDbEntity
  8
0
370
     0
390
0
  6
Continuous
 62
    94
  0
HATCH
  5
2A0
100
AcDbEntity
  8
0
370
     0
390
0
  6
Continuous
 62
    14
100
AcDbHatch
 10
0.0
 20
0.0
 30
0.0
210
0.0
220
0.0
230
1.0
  2
Endgrain
 70
     0
 71
     0
 91
        1
 92
        1
 93
        8
 72
     1
 10
-536.35416324434038
 20
-839.50389711445746
 11
-536.35416324434038
 21
-774.558759971173
 72
     1
 10
-536.35416324434038
 20
-774.558759971173
 11
-540.35416324434038
 21
-774.558759971173
 72
     1
 10
-540.35416324434038
 20
-774.558759971173
 11
-540.36928531160333
 21
-832.5487328877249
 72
     1
 10
-540.36928531160333
 20
-832.5487328877249
 11
-538.5323052223257
 21
-835.73124454248818
 72
     1
 10
-538.5323052223257
 20
-835.73124454248818
 11
-539.8541632443405
 21
-836.03979549931955
 72
     1
 10
-539.8541632443405
 20
-836.03979549931955
 11
-536.85416324434038
 21
-836.03979549931955
 72
     1
 10
-536.85416324434038
 20
-836.03979549931955
 11
-538.17602126635518
 21
-836.34834645615092
 72
     1
 10
-538.17602126635518
 20
-836.34834645615092
 11
-536.35416324434038
 21
-839.50389711445746
 97
        0
 75
     0
 76
     1
 52
90.0
 41
12.0
 77
     0
 78
    53
 53
90.0
 43
0.0
 44
4.519348
 45
-5.6491855757461629
 46
5.6491855757461638
 79
     2
 49
0.282459
 49
-5.366726
 53
90.0
 43
-0.564919
 44
0.564919
 45
-5.6491855757461629
 46
5.6491855757461638
 79
     2
 49
0.564919
 49
-5.084267
 53
90.0
 43
-0.847378
 44
4.236889
 45
-5.6491855757461629
 46
5.6491855757461638
 79
     2
 49
0.282459
 49
-5.366726
 53
90.0
 43
-1.412296
 44
0.847378
 45
-5.6491855757461629
 46
5.6491855757461638
 79
     2
 49
0.282459
 49
-5.366726
 53
90.0
 43
-1.694756
 44
4.236889
 45
-5.6491855757461629
 46
5.6491855757461638
 79
     2
 49
0.282459
 49
-5.366726
 53
90.0
 43
-1.977215
 44
1.129837
 45
-5.6491855757461629
 46
5.6491855757461638
 79
     2
 49
0.282459
 49
-5.366726
 53
90.0
 43
-2.259674
 44
4.236889
 45
-5.6491855757461629
 46
5.6491855757461638
 79
     2
 49
0.282459
 49
-5.366726
 53
90.0
 43
-2.824593
 44
1.129837
 45
-5.6491855757461629
 46
5.6491855757461638
 79
     4
 49
0.282459
 49
-3.107052
 49
0.282459
 49
-1.977215
 53
90.0
 43
-3.389511
 44
1.129837
 45
-5.6491855757461629
 46
5.6491855757461638
 79
     4
 49
0.564919
 49
-2.824593
 49
0.282459
 49
-1.977215
 53
90.0
 43
-4.236889
 44
0.847378
 45
-5.6491855757461629
 46
5.6491855757461638
 79
     6
 49
0.282459
 49
-0.847378
 49
0.282459
 49
-2.259674
 49
0.282459
 49
-1.694756
 53
90.0
 43
-4.801808
 44
0.564919
 45
-5.6491855757461629
 46
5.6491855757461638
 79
     4
 49
0.282459
 49
-1.129837
 49
0.564919
 49
-3.671971
 53
90.0
 43
-5.084267
 44
4.236889
 45
-5.6491855757461629
 46
5.6491855757461638
 79
     2
 49
0.282459
 49
-5.366726
 53
90.0
 43
-5.366726
 44
0.564919
 45
-5.6491855757461629
 46
5.6491855757461638
 79
     4
 49
0.282459
 49
-1.412296
 49
0.282459
 49
-3.671971
 53
135.0
 43
0.0
 44
0.0
 45
-5.6483324843109592
 46
0.0000000000000003
 79
     2
 49
0.796535
 49
-7.185764
 53
135.0
 43
0.0
 44
4.801808
 45
-5.6483324843109592
 46
0.0000000000000003
 79
     2
 49
1.59307
 49
-6.389229
 53
135.0
 43
-2.824593
 44
4.801808
 45
-5.6483324843109592
 46
0.0000000000000003
 79
     2
 49
0.395443
 49
-7.586856
 53
135.0
 43
-3.389511
 44
0.0
 45
-5.6483324843109592
 46
0.0000000000000003
 79
     2
 49
1.197627
 49
-6.790321
 53
135.0
 43
-3.389511
 44
4.801808
 45
-5.6483324843109592
 46
0.0000000000000003
 79
     2
 49
1.994163
 49
-5.988137
 53
135.0
 43
-4.236889
 44
4.801808
 45
-5.6483324843109592
 46
0.0000000000000003
 79
     2
 49
1.197627
 49
-6.790321
 53
405.0
 43
-4.801808
 44
3.671971
 45
0.0000000000000017
 46
5.6483324843109592
 79
     2
 49
0.395443
 49
-7.589681
 53
405.0
 43
-0.282459
 44
1.694756
 45
0.0000000000000017
 46
5.6483324843109592
 79
     2
 49
0.796535
 49
-7.189718
 53
405.0
 43
-2.542134
 44
1.977215
 45
0.0000000000000017
 46
5.6483324843109592
 79
     2
 49
0.796535
 49
-7.189718
 53
405.0
 43
-1.412296
 44
3.671971
 45
0.0000000000000017
 46
5.6483324843109592
 79
     2
 49
0.796535
 49
-7.189718
 53
405.0
 43
-3.671971
 44
3.389511
 45
0.0000000000000017
 46
5.6483324843109592
 79
     2
 49
0.796535
 49
-7.189718
 53
405.0
 43
-4.236889
 44
3.671971
 45
0.0000000000000017
 46
5.6483324843109592
 79
     2
 49
1.197627
 49
-6.790321
 53
405.0
 43
-0.847378
 44
2.259674
 45
0.0000000000000017
 46
5.6483324843109592
 79
     2
 49
1.197627
 49
-6.790321
 53
405.0
 43
-1.129837
 44
3.107052
 45
0.0000000000000017
 46
5.6483324843109592
 79
     2
 49
1.197627
 49
-6.790321
 53
405.0
 43
-3.107052
 44
2.259674
 45
0.0000000000000017
 46
5.6483324843109592
 79
     2
 49
1.197627
 49
-6.790321
 53
405.0
 43
-3.389511
 44
2.824593
 45
0.0000000000000017
 46
5.6483324843109592
 79
     2
 49
1.197627
 49
-6.790321
 53
116.565
 43
-1.129837
 44
0.282459
 45
0.0000050434906521
 46
5.6464874452989768
 79
     2
 49
0.62706
 49
-12.0
 53
116.565
 43
-0.847378
 44
4.519348
 45
0.0000050434906521
 46
5.6464874452989768
 79
     2
 49
2.525186
 49
-10.105263
 53
116.565
 43
-1.694756
 44
4.519348
 45
0.0000050434906521
 46
5.6464874452989768
 79
     2
 49
2.525186
 49
-10.105263
 53
116.565
 43
-2.259674
 44
4.519348
 45
0.0000050434906521
 46
5.6464874452989768
 79
     4
 49
2.525186
 49
-3.784954
 49
1.259768
 49
-5.056021
 53
116.565
 43
-3.107052
 44
5.084267
 45
0.0000050434906521
 46
5.6464874452989768
 79
     2
 49
0.62706
 49
-12.0
 53
116.565
 43
-5.084267
 44
0.0
 45
0.0000050434906521
 46
5.6464874452989768
 79
     2
 49
0.62706
 49
-12.0
 53
116.565
 43
-5.084267
 44
4.519348
 45
0.0000050434906521
 46
5.6464874452989768
 79
     2
 49
1.259768
 49
-11.368421
 53
423.434
 43
0.0
 44
3.107052
 45
0.0000935063064371
 46
5.6464874445269935
 79
     2
 49
1.259768
 49
-11.368421
 53
423.434
 43
-1.412296
 44
1.129837
 45
-0.0009170423631599
 46
5.6469927397804289
 79
     2
 49
1.259768
 49
-11.368421
 53
423.434
 43
-0.564919
 44
1.129837
 45
0.0000935063064371
 46
5.6464874445269935
 79
     2
 49
0.62706
 49
-12.0
 53
423.434
 43
-1.977215
 44
1.412296
 45
0.0000935063064371
 46
5.6464874445269935
 79
     2
 49
1.892477
 49
-10.736842
 53
423.434
 43
-1.977215
 44
2.542134
 45
0.0000935063064371
 46
5.6464874445269935
 79
     2
 49
1.259768
 49
-11.368421
 53
423.434
 43
-2.259674
 44
3.107052
 45
0.0000935063064371
 46
5.6464874445269935
 79
     2
 49
1.259768
 49
-11.368421
 53
423.434
 43
-2.824593
 44
1.412296
 45
0.0000935063064371
 46
5.6464874445269935
 79
     2
 49
0.62706
 49
-12.0
 53
423.434
 43
-3.389511
 44
1.694756
 45
0.0000935063064371
 46
5.6464874445269935
 79
     2
 49
0.62706
 49
-12.0
 53
423.434
 43
-4.519348
 44
3.95443
 45
0.0000935063064371
 46
5.6464874445269935
 79
     2
 49
0.62706
 49
-12.0
 53
423.434
 43
-2.542134
 44
3.671971
 45
0.0000935063064371
 46
5.6464874445269935
 79
     2
 49
0.62706
 49
-12.0
 53
423.434
 43
-4.236889
 44
1.129837
 45
0.0000935063064371
 46
5.6464874445269935
 79
     2
 49
1.892477
 49
-10.736842
 53
423.434
 43
-4.801808
 44
0.847378
 45
0.0000935063064371
 46
5.6464874445269935
 79
     2
 49
1.259768
 49
-11.368421
 53
423.434
 43
-3.107052
 44
3.95443
 45
0.0000935063064371
 46
5.6464874445269935
 79
     4
 49
0.62706
 49
-5.684211
 49
0.631579
 49
-5.684211
 53
423.434
 43
-4.236889
 44
2.259674
 45
0.0000935063064371
 46
5.6464874445269935
 79
     2
 49
1.259768
 49
-11.368421
 53
423.434
 43
-4.801808
 44
2.542134
 45
0.0000935063064371
 46
5.6464874445269935
 79
     2
 49
1.259768
 49
-11.368421
 53
423.434
 43
-5.366726
 44
0.847378
 45
0.0000935063064371
 46
5.6464874445269935
 79
     2
 49
1.259768
 49
-11.368421
 53
423.434
 43
-5.366726
 44
2.542134
 45
0.0000935063064371
 46
5.6464874445269935
 79
     2
 49
1.259768
 49
-11.368421
 98
        1
 10
0.0
 20
0.0
  0
LINE
  5
2A1
100
AcDbEntity
  8
0
370
     0
390
0
  6
Continuous
 62
    94
100
AcDbLine
 10
-255.354163
 20
-816.55876
 30
0.0
 11
-536.354163
 21
-816.55876
 31
0.0
  0
INSERT
  5
2A2
100
AcDbEntity
  8
0
370
     0
390
0
  6
Continuous
 62
    94
100
AcDbBlockReference
  2
pipe slash
 10
-193.352599
 20
-836.039795
 30
0.0
 41
-1.0
  0
LINE
  5
2A3
100
AcDbEntity
  8
0
370
     0
390
0
  6
Continuous
 62
    94
100
AcDbLine
 10
-191.352599
 20
-774.55876
 30
0.0
 11
-191.352599
 21
-839.503897
 31
0.0
  0
POLYLINE
  5
2A4
100
AcDbEntity
  8
0
370
     0
390
0
  6
Continuous
 62
    94
100
AcDb2dPolyline
 66
     1
 10
0.0
 20
0.0
 30
0.0
 70
   128
  0
VERTEX
  5
2A5
100
AcDbEntity
  8
0
370
     0
390
0
  6
Continuous
 62
    94
100
AcDbVertex
100
AcDb2dVertex
 10
-191.352599
 20
-774.55876
 30
0.0
  0
VERTEX
  5
2A6
100
AcDbEntity
  8
0
370
     0
390
0
  6
Continuous
 62
    94
100
AcDbVertex
100
AcDb2dVertex
 10
-195.352599
 20
-774.55876
 30
0.0
  0
VERTEX
  5
2A7
100
AcDbEntity
  8
0
370
     0
390
0
  6
Continuous
 62
    94
100
AcDbVertex
100
AcDb2dVertex
 10
-195.367721
 20
-832.548733
 30
0.0
  0
SEQEND
  5
2A8
100
AcDbEntity
  8
0
370
     0
390
0
  6
Continuous
 62
    94
  0
HATCH
  5
2A9
100
AcDbEntity
  8
0
370
     0
390
0
  6
Continuous
 62
    14
100
AcDbHatch
 10
0.0
 20
0.0
 30
0.0
210
0.0
220
0.0
230
1.0
  2
Endgrain
 70
     0
 71
     0
 91
        1
 92
        1
 93
        8
 72
     1
 10
-191.35259862206146
 20
-839.50389711445746
 11
-191.35259862206146
 21
-774.558759971173
 72
     1
 10
-191.35259862206146
 20
-774.558759971173
 11
-195.35259862206146
 21
-774.558759971173
 72
     1
 10
-195.35259862206146
 20
-774.558759971173
 11
-195.36772068932441
 21
-832.5487328877249
 72
     1
 10
-195.36772068932441
 20
-832.5487328877249
 11
-193.53074060004678
 21
-835.73124454248818
 72
     1
 10
-193.53074060004678
 20
-835.73124454248818
 11
-194.85259862206158
 21
-836.03979549931955
 72
     1
 10
-194.85259862206158
 20
-836.03979549931955
 11
-191.85259862206146
 21
-836.03979549931955
 72
     1
 10
-191.85259862206146
 20
-836.03979549931955
 11
-193.17445664407626
 21
-836.34834645615092
 72
     1
 10
-193.17445664407626
 20
-836.34834645615092
 11
-191.35259862206146
 21
-839.50389711445746
 97
        0
 75
     0
 76
     1
 52
90.0
 41
12.0
 77
     0
 78
    53
 53
90.0
 43
0.0
 44
4.519348
 45
-5.6491855757461629
 46
5.6491855757461638
 79
     2
 49
0.282459
 49
-5.366726
 53
90.0
 43
-0.564919
 44
0.564919
 45
-5.6491855757461629
 46
5.6491855757461638
 79
     2
 49
0.564919
 49
-5.084267
 53
90.0
 43
-0.847378
 44
4.236889
 45
-5.6491855757461629
 46
5.6491855757461638
 79
     2
 49
0.282459
 49
-5.366726
 53
90.0
 43
-1.412296
 44
0.847378
 45
-5.6491855757461629
 46
5.6491855757461638
 79
     2
 49
0.282459
 49
-5.366726
 53
90.0
 43
-1.694756
 44
4.236889
 45
-5.6491855757461629
 46
5.6491855757461638
 79
     2
 49
0.282459
 49
-5.366726
 53
90.0
 43
-1.977215
 44
1.129837
 45
-5.6491855757461629
 46
5.6491855757461638
 79
     2
 49
0.282459
 49
-5.366726
 53
90.0
 43
-2.259674
 44
4.236889
 45
-5.6491855757461629
 46
5.6491855757461638
 79
     2
 49
0.282459
 49
-5.366726
 53
90.0
 43
-2.824593
 44
1.129837
 45
-5.6491855757461629
 46
5.6491855757461638
 79
     4
 49
0.282459
 49
-3.107052
 49
0.282459
 49
-1.977215
 53
90.0
 43
-3.389511
 44
1.129837
 45
-5.6491855757461629
 46
5.6491855757461638
 79
     4
 49
0.564919
 49
-2.824593
 49
0.282459
 49
-1.977215
 53
90.0
 43
-4.236889
 44
0.847378
 45
-5.6491855757461629
 46
5.6491855757461638
 79
     6
 49
0.282459
 49
-0.847378
 49
0.282459
 49
-2.259674
 49
0.282459
 49
-1.694756
 53
90.0
 43
-4.801808
 44
0.564919
 45
-5.6491855757461629
 46
5.6491855757461638
 79
     4
 49
0.282459
 49
-1.129837
 49
0.564919
 49
-3.671971
 53
90.0
 43
-5.084267
 44
4.236889
 45
-5.6491855757461629
 46
5.6491855757461638
 79
     2
 49
0.282459
 49
-5.366726
 53
90.0
 43
-5.366726
 44
0.564919
 45
-5.6491855757461629
 46
5.6491855757461638
 79
     4
 49
0.282459
 49
-1.412296
 49
0.282459
 49
-3.671971
 53
135.0
 43
0.0
 44
0.0
 45
-5.6483324843109592
 46
0.0000000000000003
 79
     2
 49
0.796535
 49
-7.185764
 53
135.0
 43
0.0
 44
4.801808
 45
-5.6483324843109592
 46
0.0000000000000003
 79
     2
 49
1.59307
 49
-6.389229
 53
135.0
 43
-2.824593
 44
4.801808
 45
-5.6483324843109592
 46
0.0000000000000003
 79
     2
 49
0.395443
 49
-7.586856
 53
135.0
 43
-3.389511
 44
0.0
 45
-5.6483324843109592
 46
0.0000000000000003
 79
     2
 49
1.197627
 49
-6.790321
 53
135.0
 43
-3.389511
 44
4.801808
 45
-5.6483324843109592
 46
0.0000000000000003
 79
     2
 49
1.994163
 49
-5.988137
 53
135.0
 43
-4.236889
 44
4.801808
 45
-5.6483324843109592
 46
0.0000000000000003
 79
     2
 49
1.197627
 49
-6.790321
 53
405.0
 43
-4.801808
 44
3.671971
 45
0.0000000000000017
 46
5.6483324843109592
 79
     2
 49
0.395443
 49
-7.589681
 53
405.0
 43
-0.282459
 44
1.694756
 45
0.0000000000000017
 46
5.6483324843109592
 79
     2
 49
0.796535
 49
-7.189718
 53
405.0
 43
-2.542134
 44
1.977215
 45
0.0000000000000017
 46
5.6483324843109592
 79
     2
 49
0.796535
 49
-7.189718
 53
405.0
 43
-1.412296
 44
3.671971
 45
0.0000000000000017
 46
5.6483324843109592
 79
     2
 49
0.796535
 49
-7.189718
 53
405.0
 43
-3.671971
 44
3.389511
 45
0.0000000000000017
 46
5.6483324843109592
 79
     2
 49
0.796535
 49
-7.189718
 53
405.0
 43
-4.236889
 44
3.671971
 45
0.0000000000000017
 46
5.6483324843109592
 79
     2
 49
1.197627
 49
-6.790321
 53
405.0
 43
-0.847378
 44
2.259674
 45
0.0000000000000017
 46
5.6483324843109592
 79
     2
 49
1.197627
 49
-6.790321
 53
405.0
 43
-1.129837
 44
3.107052
 45
0.0000000000000017
 46
5.6483324843109592
 79
     2
 49
1.197627
 49
-6.790321
 53
405.0
 43
-3.107052
 44
2.259674
 45
0.0000000000000017
 46
5.6483324843109592
 79
     2
 49
1.197627
 49
-6.790321
 53
405.0
 43
-3.389511
 44
2.824593
 45
0.0000000000000017
 46
5.6483324843109592
 79
     2
 49
1.197627
 49
-6.790321
 53
116.565
 43
-1.129837
 44
0.282459
 45
0.0000050434906521
 46
5.6464874452989768
 79
     2
 49
0.62706
 49
-12.0
 53
116.565
 43
-0.847378
 44
4.519348
 45
0.0000050434906521
 46
5.6464874452989768
 79
     2
 49
2.525186
 49
-10.105263
 53
116.565
 43
-1.694756
 44
4.519348
 45
0.0000050434906521
 46
5.6464874452989768
 79
     2
 49
2.525186
 49
-10.105263
 53
116.565
 43
-2.259674
 44
4.519348
 45
0.0000050434906521
 46
5.6464874452989768
 79
     4
 49
2.525186
 49
-3.784954
 49
1.259768
 49
-5.056021
 53
116.565
 43
-3.107052
 44
5.084267
 45
0.0000050434906521
 46
5.6464874452989768
 79
     2
 49
0.62706
 49
-12.0
 53
116.565
 43
-5.084267
 44
0.0
 45
0.0000050434906521
 46
5.6464874452989768
 79
     2
 49
0.62706
 49
-12.0
 53
116.565
 43
-5.084267
 44
4.519348
 45
0.0000050434906521
 46
5.6464874452989768
 79
     2
 49
1.259768
 49
-11.368421
 53
423.434
 43
0.0
 44
3.107052
 45
0.0000935063064371
 46
5.6464874445269935
 79
     2
 49
1.259768
 49
-11.368421
 53
423.434
 43
-1.412296
 44
1.129837
 45
-0.0009170423631599
 46
5.6469927397804289
 79
     2
 49
1.259768
 49
-11.368421
 53
423.434
 43
-0.564919
 44
1.129837
 45
0.0000935063064371
 46
5.6464874445269935
 79
     2
 49
0.62706
 49
-12.0
 53
423.434
 43
-1.977215
 44
1.412296
 45
0.0000935063064371
 46
5.6464874445269935
 79
     2
 49
1.892477
 49
-10.736842
 53
423.434
 43
-1.977215
 44
2.542134
 45
0.0000935063064371
 46
5.6464874445269935
 79
     2
 49
1.259768
 49
-11.368421
 53
423.434
 43
-2.259674
 44
3.107052
 45
0.0000935063064371
 46
5.6464874445269935
 79
     2
 49
1.259768
 49
-11.368421
 53
423.434
 43
-2.824593
 44
1.412296
 45
0.0000935063064371
 46
5.6464874445269935
 79
     2
 49
0.62706
 49
-12.0
 53
423.434
 43
-3.389511
 44
1.694756
 45
0.0000935063064371
 46
5.6464874445269935
 79
     2
 49
0.62706
 49
-12.0
 53
423.434
 43
-4.519348
 44
3.95443
 45
0.0000935063064371
 46
5.6464874445269935
 79
     2
 49
0.62706
 49
-12.0
 53
423.434
 43
-2.542134
 44
3.671971
 45
0.0000935063064371
 46
5.6464874445269935
 79
     2
 49
0.62706
 49
-12.0
 53
423.434
 43
-4.236889
 44
1.129837
 45
0.0000935063064371
 46
5.6464874445269935
 79
     2
 49
1.892477
 49
-10.736842
 53
423.434
 43
-4.801808
 44
0.847378
 45
0.0000935063064371
 46
5.6464874445269935
 79
     2
 49
1.259768
 49
-11.368421
 53
423.434
 43
-3.107052
 44
3.95443
 45
0.0000935063064371
 46
5.6464874445269935
 79
     4
 49
0.62706
 49
-5.684211
 49
0.631579
 49
-5.684211
 53
423.434
 43
-4.236889
 44
2.259674
 45
0.0000935063064371
 46
5.6464874445269935
 79
     2
 49
1.259768
 49
-11.368421
 53
423.434
 43
-4.801808
 44
2.542134
 45
0.0000935063064371
 46
5.6464874445269935
 79
     2
 49
1.259768
 49
-11.368421
 53
423.434
 43
-5.366726
 44
0.847378
 45
0.0000935063064371
 46
5.6464874445269935
 79
     2
 49
1.259768
 49
-11.368421
 53
423.434
 43
-5.366726
 44
2.542134
 45
0.0000935063064371
 46
5.6464874445269935
 79
     2
 49
1.259768
 49
-11.368421
 98
        1
 10
0.0
 20
0.0
  0
INSERT
  5
2B1
100
AcDbEntity
  8
0
370
     0
390
0
  6
Continuous
 62
    94
100
AcDbBlockReference
  2
sightln
 10
-530.354163
 20
-808.55876
 30
0.0
 50
270.0
  0
LINE
  5
2B2
100
AcDbEntity
  8
0
370
     0
390
0
  6
Continuous
 62
    94
100
AcDbLine
 10
-255.354163
 20
-780.55876
 30
0.0
 11
-255.354163
 21
-816.55876
 31
0.0
  0
TEXT
  5
2B3
100
AcDbEntity
  8
0
370
     0
390
0
  6
Continuous
 62
   174
100
AcDbText
 10
-693.577573
 20
-786.65957
 30
0.0
 40
2.5
  1
#9 Electric
  7
Vcadd_Helvet
 72
     1
 11
-682.951087
 21
-786.65957
 31
0.0
100
AcDbText
  0
INSERT
  5
2B4
100
AcDbEntity
  8
0
370
     0
390
0
  6
Continuous
 62
    94
100
AcDbBlockReference
  2
hanging position oval
 10
-682.951087
 20
-789.65957
 30
0.0
 41
-1.0
  0
TEXT
  5
2B5
100
AcDbEntity
  8
0
370
     0
390
0
  6
Continuous
 62
   174
100
AcDbText
 10
-690.199782
 20
-789.65957
 30
0.0
 40
1.75
  1
15'-4" Trim
  7
Vcadd_Helvet
 72
     1
 11
-682.951087
 21
-789.65957
 31
0.0
100
AcDbText
  0
LINE
  5
2B6
100
AcDbEntity
  8
0
370
     0
390
0
  6
Continuous
 62
    94
100
AcDbLine
 10
-655.246247
 20
-750.045521
 30
0.0
 11
-625.378943
 21
-752.864059
 31
0.0
  0
LINE
  5
2B7
100
AcDbEntity
  8
0
370
     0
390
0
  6
Continuous
 62
    94
100
AcDbLine
 10
-663.740208
 20
-839.588842
 30
0.0
 11
-658.141411
 21
-779.905591
 31
0.0
  0
LINE
  5
2B8
100
AcDbEntity
  8
0
370
     0
390
0
  6
Continuous
 62
    94
100
AcDbLine
 10
-625.378943
 20
-752.864059
 30
0.0
 11
-625.543358
 21
-754.606318
 31
0.0
  0
LINE
  5
2B9
100
AcDbEntity
  8
0
370
     0
390
0
  6
Continuous
 62
    94
100
AcDbLine
 10
-655.246247
 20
-750.045521
 30
0.0
 11
-655.410662
 21
-751.787781
 31
0.0
  0
LINE
  5
2BA
100
AcDbEntity
  8
0
370
     0
390
0
  6
Continuous
 62
    94
100
AcDbLine
 10
-655.410662
 20
-751.787781
 30
0.0
 11
-625.543358
 21
-754.606318
 31
0.0
  0
LINE
  5
2BB
100
AcDbEntity
  8
0
370
     0
390
0
  6
Continuous
 62
    94
100
AcDbLine
 10
-655.246247
 20
-750.045521
 30
0.0
 11
-654.980513
 21
-747.229605
 31
0.0
  0
INSERT
  5
2C6
100
AcDbEntity
  8
0
370
     0
390
0
  6
Continuous
 62
    94
100
AcDbBlockReference
  2
arrwhead
 10
-658.064784
 20
-779.912825
 30
0.0
 50
180.0
  0
HATCH
  5
2C7
100
AcDbEntity
  8
0
370
     0
390
0
  6
Continuous
 62
    14
100
AcDbHatch
 10
0.0
 20
0.0
 30
0.0
210
0.0
220
0.0
230
1.0
  2
DASH
 70
     0
 71
     0
 91
        1
 92
        1
 93
        5
 72
     1
 10
-655.24624728407514
 20
-750.04552137989424
 11
-625.37894328235518
 21
-752.8640585304106
 72
     1
 10
-625.37894328235518
 20
-752.8640585304106
 11
-625.5433579494686
 21
-754.60631793051095
 72
     1
 10
-625.5433579494686
 20
-754.60631793051095
 11
-625.54335794946871
 21
-754.60631793051118
 72
     1
 10
-625.54335794946871
 20
-754.60631793051118
 11
-655.41066195118856
 21
-751.78778077999459
 72
     1
 10
-655.41066195118856
 20
-751.78778077999459
 11
-655.24624728407514
 21
-750.04552137989424
 97
        0
 75
     0
 76
     1
 52
45.0
 41
12.0
 77
     0
 78
     1
 53
45.0
 43
0.0
 44
0.0
 45
0.0000000000000002
 46
2.1213203435596424
 79
     2
 49
1.5
 49
-1.5
 98
        1
 10
0.0
 20
0.0
  0
LINE
  5
2C8
100
AcDbEntity
  8
0
370
     0
390
0
  6
Continuous
 62
    94
100
AcDbLine
 10
-255.354163
 20
-816.55876
 30
0.0
 11
-255.354163
 21
-829.78916
 31
0.0
  0
INSERT
  5
2C9
100
AcDbEntity
  8
0
370
     0
390
0
  6
Continuous
 62
    94
100
AcDbBlockReference
  2
arrwhead
 10
-255.354163
 20
-828.78916
 30
0.0
 50
270.0
  0
LINE
  5
2CA
100
AcDbEntity
  8
0
370
     0
390
0
  6
DASHED
 62
    94
100
AcDbLine
 10
-536.354163
 20
-780.55876
 30
0.0
 11
-255.354163
 21
-816.55876
 31
0.0
  0
LINE
  5
2CB
100
AcDbEntity
  8
0
370
     0
390
0
  6
DASHED
 62
    94
100
AcDbLine
 10
-255.354163
 20
-780.55876
 30
0.0
 11
-536.354163
 21
-816.55876
 31
0.0
  0
ARC
  5
2CC
100
AcDbEntity
  8
0
370
     0
390
0
  6
DASHED
 62
    94
100
AcDbCircle
 10
-655.246247
 20
-750.045521
 30
0.0
 40
30.0
100
AcDbArc
 50
264.60904
 51
354.60904
  0
INSERT
  5
2CD
100
AcDbEntity
  8
0
370
     0
390
0
  6
Continuous
 62
    94
100
AcDbBlockReference
  2
hanging position oval
 10
-498.206638
 20
-527.346468
 30
0.0
 41
-1.0
  0
TEXT
  5
2CE
100
AcDbEntity
  8
0
370
     0
390
0
  6
Continuous
 62
   174
100
AcDbText
 10
-508.838561
 20
-524.346468
 30
0.0
 40
2.5
  1
#6 Electric
  7
Vcadd_Helvet
 72
     1
 11
-498.206638
 21
-524.346468
 31
0.0
100
AcDbText
  0
TEXT
  5
2CF
100
AcDbEntity
  8
0
370
     0
390
0
  6
Continuous
 62
   174
100
AcDbText
 10
-505.455333
 20
-527.346468
 30
0.0
 40
1.75
  1
15'-4" Trim
  7
Vcadd_Helvet
 72
     1
 11
-498.206638
 21
-527.346468
 31
0.0
100
AcDbText
  0
INSERT
  5
2D0
100
AcDbEntity
  8
drapes
370
     0
390
0
  6
Continuous
 62
    94
100
AcDbBlockReference
  2
DRAPE
 10
-621.921413
 20
-660.678986
 30
0.0
 41
-1.0
 42
1.0
 50
333.4
  0
HATCH
  5
2D1
100
AcDbEntity
  8
Title Block
370
     0
390
0
  6
Continuous
 62
    14
100
AcDbHatch
 10
0.0
 20
0.0
 30
0.0
210
0.0
220
0.0
230
1.0
  2
DOTS
 70
     0
 71
     0
 91
        2
 92
        1
 93
        1
 72
     3
 10
26.539084775057759
 20
-934.99445916592299
 11
0.0
 21
-24.403888003480688
 40
0.42548
 50
360.0
 51
360.0
 73
     1
 97
        0
 92
        1
 93
        1
 72
     3
 10
26.539084775057759
 20
-937.55734979092279
 11
0.0
 21
-24.403888003480574
 40
0.42548
 50
360.0
 51
360.0
 73
     1
 97
        0
 75
     0
 76
     1
 52
45.0
 41
12.0
 77
     0
 78
     1
 53
45.0
 43
0.0
 44
0.0
 45
-0.2655893070136672
 46
0.795070864766154
 79
     2
 49
0.0
 49
-0.75
 98
        1
 10
0.0
 20
0.0
  0
HATCH
  5
2D2
100
AcDbEntity
  8
Title Block
370
     0
390
0
  6
Continuous
 62
    14
100
AcDbHatch
 10
0.0
 20
0.0
 30
0.0
210
0.0
220
0.0
230
1.0
  2
DOTS
 70
     0
 71
     0
 91
        2
 92
        1
 93
        1
 72
     3
 10
31.503107357090716
 20
-871.24840823412183
 11
0.0
 21
-11.119236034899814
 40
0.487385
 50
360.0
 51
360.0
 73
     1
 97
        0
 92
        1
 93
        1
 72
     3
 10
31.503107357090716
 20
-869.98278323412183
 11
0.0
 21
-11.119236034899814
 40
0.487385
 50
360.0
 51
360.0
 73
     1
 97
        0
 75
     0
 76
     1
 52
45.0
 41
12.0
 77
     0
 78
     1
 53
45.0
 43
0.0
 44
0.0
 45
-0.2655893070136672
 46
0.795070864766154
 79
     2
 49
0.0
 49
-0.75
 98
        1
 10
0.0
 20
0.0
  0
HATCH
  5
2D3
100
AcDbEntity
  8
Title Block
370
     0
390
0
  6
Continuous
 62
    14
100
AcDbHatch
 10
0.0
 20
0.0
 30
0.0
210
0.0
220
0.0
230
1.0
  2
DOTS
 70
     0
 71
     0
 91
        2
 92
        1
 93
        1
 72
     3
 10
31.503107357090716
 20
-871.24840823412183
 11
0.0
 21
-11.119236034899814
 40
0.487385
 50
360.0
 51
360.0
 73
     1
 97
        0
 92
        1
 93
        1
 72
     3
 10
31.503107357090716
 20
-869.98278323412183
 11
0.0
 21
-11.119236034899814
 40
0.487385
 50
360.0
 51
360.0
 73
     1
 97
        0
 75
     0
 76
     1
 52
45.0
 41
12.0
 77
     0
 78
     1
 53
45.0
 43
0.0
 44
0.0
 45
-0.2655893070136672
 46
0.795070864766154
 79
     2
 49
0.0
 49
-0.75
 98
        1
 10
0.0
 20
0.0
  0
INSERT
  5
2D4
100
AcDbEntity
  8
0
370
     0
390
0
  6
Continuous
 62
    94
100
AcDbBlockReference
  2
hanging position oval
 10
-331.60155
 20
-560.627907
 30
0.0
  0
TEXT
  5
2D5
100
AcDbEntity
  8
0
370
     0
390
0
  6
Continuous
 62
   174
100
AcDbText
 10
-342.248791
 20
-557.627907
 30
0.0
 40
2.5
  1
#5 Electric
  7
Vcadd_Helvet
 72
     1
 11
-331.60155
 21
-557.627907
 31
0.0
100
AcDbText
  0
TEXT
  5
2D6
100
AcDbEntity
  8
0
370
     0
390
0
  6
Continuous
 62
   174
100
AcDbText
 10
-338.850245
 20
-560.627907
 30
0.0
 40
1.75
  1
15'-4" Trim
  7
Vcadd_Helvet
 72
     1
 11
-331.60155
 21
-560.627907
 31
0.0
100
AcDbText
  0
ARC
  5
2D7
100
AcDbEntity
  8
Title Block
370
     0
390
0
  6
Continuous
 62
   174
100
AcDbCircle
 10
38.604013
 20
-979.703241
 30
0.0
 40
5.695313
100
AcDbArc
 50
270.0
 51
360.0
  0
ARC
  5
2D8
100
AcDbEntity
  8
Title Block
370
    30
390
0
  6
Continuous
 62
    14
100
AcDbCircle
 10
38.604013
 20
-979.703241
 30
0.0
 40
7.59375
100
AcDbArc
 50
270.0
 51
360.0
  0
ARC
  5
2D9
100
AcDbEntity
  8
Title Block
370
     0
390
0
  6
Continuous
 62
   174
100
AcDbCircle
 10
-30.002019
 20
-979.703241
 30
0.0
 40
5.695313
100
AcDbArc
 50
180.0
 51
270.0
  0
ARC
  5
2DA
100
AcDbEntity
  8
Title Block
370
     0
390
0
  6
Continuous
 62
   174
100
AcDbCircle
 10
-22.408269
 20
-983.500116
 30
0.0
 40
7.59375
100
AcDbArc
 50
180.0
 51
270.0
  0
ARC
  5
2DB
100
AcDbEntity
  8
Title Block
370
    30
390
0
  6
Continuous
 62
    14
100
AcDbCircle
 10
-30.002019
 20
-979.703241
 30
0.0
 40
7.59375
100
AcDbArc
 50
180.0
 51
270.0
  0
ARC
  5
2DC
100
AcDbEntity
  8
Title Block
370
    30
390
0
  6
Continuous
 62
    14
100
AcDbCircle
 10
-22.408269
 20
-983.500116
 30
0.0
 40
9.492188
100
AcDbArc
 50
180.0
 51
270.0
  0
ARC
  5
2DD
100
AcDbEntity
  8
Title Block
370
     0
390
0
  6
Continuous
 62
   174
100
AcDbCircle
 10
31.473732
 20
-983.500116
 30
0.0
 40
7.59375
100
AcDbArc
 50
270.0
 51
360.0
  0
ARC
  5
2DE
100
AcDbEntity
  8
Title Block
370
    30
390
0
  6
Continuous
 62
    14
100
AcDbCircle
 10
31.473732
 20
-983.500116
 30
0.0
 40
9.492187
100
AcDbArc
 50
270.0
 51
360.0
  0
ELLIPSE
  5
2DF
100
AcDbEntity
  8
Title Block
370
     0
390
0
  6
Continuous
 62
     1
100
AcDbEllipse
 10
26.539085
 20
-934.994459
 30
0.0
 11
0.0
 21
-24.403888003480688
 31
0.0
210
0.0
220
0.0
230
1.0
 40
0.42548
 41
0.0
 42
6.2831853071795862
  0
ELLIPSE
  5
2E0
100
AcDbEntity
  8
Title Block
370
     0
390
0
  6
Continuous
 62
     1
100
AcDbEllipse
 10
26.539085
 20
-937.55735
 30
0.0
 11
0.0
 21
-24.403888003480574
 31
0.0
210
0.0
220
0.0
230
1.0
 40
0.42548
 41
0.0
 42
6.2831853071795862
  0
TEXT
  5
2E1
100
AcDbEntity
  8
Title Block
370
     0
390
0
  6
Continuous
 62
   174
100
AcDbText
 10
29.519544
 20
-942.976498
 30
0.0
 40
6.834375
  1
" = 1'
 50
90.0
  7
Vcadd_Helvet
100
AcDbText
  0
TEXT
  5
2E2
100
AcDbEntity
  8
Title Block
370
     0
390
0
  6
Continuous
 62
   174
100
AcDbText
 10
21.997724
 20
-945.868573
 30
0.0
 40
12.0
  1
2
 50
90.0
  7
Vcadd_Helvet
 72
     2
 11
30.034687
 21
-945.868573
 31
0.0
100
AcDbText
  0
LINE
  5
2E3
100
AcDbEntity
  8
Title Block
370
    30
390
0
  6
Continuous
 62
    14
100
AcDbLine
 10
-30.002019
 20
-887.64479
 30
0.0
 11
39.067482
 21
-887.64479
 31
0.0
  0
LINE
  5
2E4
100
AcDbEntity
  8
Title Block
370
     0
390
0
  6
Continuous
 62
   174
100
AcDbLine
 10
-30.002019
 20
-985.398553
 30
0.0
 11
38.604013
 21
-985.398553
 31
0.0
  0
LINE
  5
2E5
100
AcDbEntity
  8
Title Block
370
    30
390
0
  6
Continuous
 62
    14
100
AcDbLine
 10
-30.002019
 20
-987.296991
 30
0.0
 11
38.604013
 21
-987.296991
 31
0.0
  0
LINE
  5
2E6
100
AcDbEntity
  8
Title Block
370
     0
390
0
  6
Continuous
 62
   174
100
AcDbLine
 10
-22.408269
 20
-991.093866
 30
0.0
 11
31.947398
 21
-991.093866
 31
0.0
  0
LINE
  5
2E7
100
AcDbEntity
  8
Title Block
370
    30
390
0
  6
Continuous
 62
    14
100
AcDbLine
 10
-22.408269
 20
-992.992303
 30
0.0
 11
31.473732
 21
-992.992303
 31
0.0
  0
ELLIPSE
  5
2E8
100
AcDbEntity
  8
Title Block
370
     0
390
0
  6
Continuous
 62
   174
100
AcDbEllipse
 10
31.503107
 20
-871.248408
 30
0.0
 11
0.0
 21
-11.119236034899814
 31
0.0
210
0.0
220
0.0
230
1.0
 40
0.487385
 41
0.0
 42
6.2831853071795862
  0
ELLIPSE
  5
2E9
100
AcDbEntity
  8
Title Block
370
     0
390
0
  6
Continuous
 62
   174
100
AcDbEllipse
 10
31.503107
 20
-869.982783
 30
0.0
 11
0.0
 21
-11.119236034899814
 31
0.0
210
0.0
220
0.0
230
1.0
 40
0.487385
 41
0.0
 42
6.2831853071795862
  0
TEXT
  5
2EA
100
AcDbEntity
  8
Title Block
370
     0
390
0
  6
Continuous
 62
   174
100
AcDbText
 10
23.181711
 20
-870.815742
 30
0.0
 40
2.53125
  1
Page #1
 50
90.0
  7
Vcadd_Helvet
 72
     1
 11
30.880141
 21
-870.815742
 31
0.0
100
AcDbText
  0
TEXT
  5
2EB
100
AcDbEntity
  8
Title Block
370
     0
390
0
  6
Continuous
 62
   174
100
AcDbText
 10
30.610027
 20
-870.815742
 30
0.0
 40
2.53125
  1
of 2
 50
90.0
  7
Vcadd_Helvet
 72
     1
 11
34.677016
 21
-870.815742
 31
0.0
100
AcDbText
  0
ARC
  5
2EC
100
AcDbEntity
  8
Title Block
370
     0
390
0
  6
Continuous
 62
   174
100
AcDbCircle
 10
38.604013
 20
-806.90979
 30
0.0
 40
5.695313
100
AcDbArc
 50
0.0
 51
90.0
  0
ARC
  5
2ED
100
AcDbEntity
  8
Title Block
370
     0
390
0
  6
Continuous
 62
   174
100
AcDbCircle
 10
31.473732
 20
-803.112915
 30
0.0
 40
7.59375
100
AcDbArc
 50
0.0
 51
90.0
  0
ARC
  5
2EE
100
AcDbEntity
  8
Title Block
370
    30
390
0
  6
Continuous
 62
    14
100
AcDbCircle
 10
38.604013
 20
-806.90979
 30
0.0
 40
7.59375
100
AcDbArc
 50
360.0
 51
450.0
  0
ARC
  5
2EF
100
AcDbEntity
  8
Title Block
370
    30
390
0
  6
Continuous
 62
    14
100
AcDbCircle
 10
31.473732
 20
-803.112915
 30
0.0
 40
9.492188
100
AcDbArc
 50
360.0
 51
450.0
  0
ARC
  5
2F0
100
AcDbEntity
  8
Title Block
370
     0
390
0
  6
Continuous
 62
   174
100
AcDbCircle
 10
-30.002019
 20
-806.90979
 30
0.0
 40
5.695313
100
AcDbArc
 50
90.0
 51
180.0
  0
ARC
  5
2F1
100
AcDbEntity
  8
Title Block
370
     0
390
0
  6
Continuous
 62
   174
100
AcDbCircle
 10
-22.408269
 20
-803.112915
 30
0.0
 40
7.59375
100
AcDbArc
 50
90.0
 51
180.0
  0
ARC
  5
2F2
100
AcDbEntity
  8
Title Block
370
    30
390
0
  6
Continuous
 62
    14
100
AcDbCircle
 10
-30.002019
 20
-806.90979
 30
0.0
 40
7.59375
100
AcDbArc
 50
90.0
 51
180.0
  0
ARC
  5
2F3
100
AcDbEntity
  8
Title Block
370
    30
390
0
  6
Continuous
 62
    14
100
AcDbCircle
 10
-22.408269
 20
-803.112915
 30
0.0
 40
9.492188
100
AcDbArc
 50
90.0
 51
180.0
  0
LINE
  5
2F4
100
AcDbEntity
  8
Title Block
370
    30
390
0
  6
Continuous
 62
    14
100
AcDbLine
 10
-22.408269
 20
-793.620728
 30
0.0
 11
31.473732
 21
-793.620728
 31
0.0
  0
LINE
  5
2F5
100
AcDbEntity
  8
Title Block
370
     0
390
0
  6
Continuous
 62
   174
100
AcDbLine
 10
-22.408269
 20
-795.519165
 30
0.0
 11
31.473732
 21
-795.519165
 31
0.0
  0
LINE
  5
2F6
100
AcDbEntity
  8
Title Block
370
    30
390
0
  6
Continuous
 62
    14
100
AcDbLine
 10
-30.002019
 20
-799.31604
 30
0.0
 11
38.748232
 21
-799.31604
 31
0.0
  0
LINE
  5
2F7
100
AcDbEntity
  8
Title Block
370
     0
390
0
  6
Continuous
 62
   174
100
AcDbLine
 10
-30.002019
 20
-801.214478
 30
0.0
 11
39.067482
 21
-801.214478
 31
0.0
  0
TEXT
  5
2F8
100
AcDbEntity
  8
Title Block
370
     0
390
0
  6
Continuous
 62
   174
100
AcDbText
 10
-67.720321
 20
-808.266872
 30
0.0
 40
3.0
  1
Jeffrey E. Salzberg,
 50
90.0
  7
Vcadd_Helvet
 72
     2
 11
-21.805408
 21
-808.266872
 31
0.0
100
AcDbText
  0
TEXT
  5
2F9
100
AcDbEntity
  8
Title Block
370
     0
390
0
  6
Continuous
 62
   174
100
AcDbText
 10
-56.749033
 20
-808.266872
 30
0.0
 40
3.0
  1
Lighting Designer
 50
90.0
  7
Vcadd_Helvet
 72
     2
 11
-17.305408
 21
-808.266872
 31
0.0
100
AcDbText
  0
TEXT
  5
2FA
100
AcDbEntity
  8
Title Block
370
     0
390
0
  6
Continuous
 62
   174
100
AcDbText
 10
-45.342991
 20
-808.266872
 30
0.0
 40
3.0
  1
January, 2006
 50
90.0
  7
Vcadd_Helvet
 72
     2
 11
-12.805408
 21
-808.266872
 31
0.0
100
AcDbText
  0
TEXT
  5
2FB
100
AcDbEntity
  8
Title Block
370
     0
390
0
  6
Continuous
 62
   174
100
AcDbText
 10
-8.305408
 20
-808.266872
 30
0.0
 40
3.0
  1
West End Theatre
 50
90.0
  7
Vcadd_Helvet
 72
     2
 11
-8.305408
 21
-808.266872
 31
0.0
100
AcDbText
  0
TEXT
  5
2FC
100
AcDbEntity
  8
Title Block
370
     0
390
0
  6
Continuous
 62
   174
100
AcDbText
 10
-46.780069
 20
-808.266872
 30
0.0
 40
3.0
  1
New York, NY
 50
90.0
  7
Vcadd_Helvet
 72
     2
 11
-3.805408
 21
-808.266872
 31
0.0
100
AcDbText
  0
TEXT
  5
2FD
100
AcDbEntity
  8
Title Block
370
     0
390
0
  6
Continuous
 62
   174
100
AcDbText
 10
18.399478
 20
-849.936063
 30
0.0
 40
3.0
  1
Version:
 50
90.0
  7
Vcadd_Helvet
100
AcDbText
  0
TEXT
  5
2FE
100
AcDbEntity
  8
Title Block
370
     0
390
0
  6
Continuous
 62
   174
100
AcDbText
 10
1.298417
 20
-808.323964
 30
0.0
 40
2.0
  1
(917) 238-7430
 50
90.0
  7
Vcadd_Helvet
 72
     2
 11
24.958531
 21
-808.323964
 31
0.0
100
AcDbText
  0
TEXT
  5
2FF
100
AcDbEntity
  8
Title Block
370
     0
390
0
  6
Continuous
 62
   174
100
AcDbText
 10
-6.541948
 20
-808.323964
 30
0.0
 40
2.0
  1
jeff@jeffsalzberg.com
 50
90.0
  7
Vcadd_Helvet
 72
     2
 11
27.958531
 21
-808.323964
 31
0.0
100
AcDbText
  0
TEXT
  5
300
100
AcDbEntity
  8
Title Block
370
     0
390
0
  6
Continuous
 62
   174
100
AcDbText
 10
-13.365532
 20
-808.323964
 30
0.0
 40
2.0
  1
http://www.jeffsalzberg.com
 50
90.0
  7
Vcadd_Helvet
 72
     2
 11
30.958531
 21
-808.323964
 31
0.0
100
AcDbText
  0
LINE
  5
301
100
AcDbEntity
  8
Title Block
370
    30
390
0
  6
Continuous
 62
    14
100
AcDbLine
 10
-37.595769
 20
-979.703241
 30
0.0
 11
-37.595769
 21
-806.90979
 31
0.0
  0
LINE
  5
302
100
AcDbEntity
  8
Title Block
370
     0
390
0
  6
Continuous
 62
   174
100
AcDbLine
 10
-35.697332
 20
-979.703241
 30
0.0
 11
-35.697332
 21
-806.90979
 31
0.0
  0
LINE
  5
303
100
AcDbEntity
  8
Title Block
370
    30
390
0
  6
Continuous
 62
    14
100
AcDbLine
 10
-31.900457
 20
-983.500116
 30
0.0
 11
-31.900457
 21
-803.112915
 31
0.0
  0
LINE
  5
304
100
AcDbEntity
  8
Title Block
370
     0
390
0
  6
Continuous
 62
     7
100
AcDbLine
 10
-30.002019
 20
-983.500116
 30
0.0
 11
-30.002019
 21
-801.214478
 31
0.0
  0
LINE
  5
305
100
AcDbEntity
  8
Title Block
370
     0
390
0
  6
Continuous
 62
   174
100
AcDbLine
 10
39.067482
 20
-983.500116
 30
0.0
 11
39.067482
 21
-803.112915
 31
0.0
  0
LINE
  5
306
100
AcDbEntity
  8
Title Block
370
    30
390
0
  6
Continuous
 62
    14
100
AcDbLine
 10
40.965919
 20
-983.500116
 30
0.0
 11
40.965919
 21
-803.112915
 31
0.0
  0
LINE
  5
307
100
AcDbEntity
  8
Title Block
370
     0
390
0
  6
Continuous
 62
   174
100
AcDbLine
 10
44.299326
 20
-979.703241
 30
0.0
 11
44.299326
 21
-806.90979
 31
0.0
  0
LINE
  5
308
100
AcDbEntity
  8
Title Block
370
    30
390
0
  6
Continuous
 62
    14
100
AcDbLine
 10
46.197763
 20
-979.703241
 30
0.0
 11
46.197763
 21
-806.90979
 31
0.0
  0
TEXT
  5
309
100
AcDbEntity
  8
Title Block
370
     0
390
0
  6
Continuous
 62
   174
100
AcDbText
 10
-12.306021
 20
-934.992464
 30
0.0
 40
3.0
  1
Overhead Electrics
 50
90.0
  7
Vcadd_Helvet
 72
     1
 11
9.728388
 21
-934.992464
 31
0.0
100
AcDbText
  0
INSERT
  5
30A
100
AcDbEntity
  8
drapes
370
     0
390
0
  6
Continuous
 62
    94
100
AcDbBlockReference
  2
DRAPE
 10
-638.041279
 20
-692.868268
 30
0.0
 41
-1.0
 42
1.0
 50
333.4
  0
TEXT
  5
30B
100
AcDbEntity
  8
0
370
     0
390
0
  6
Continuous
 62
   174
100
AcDbText
 10
-224.285124
 20
-532.811089
 30
0.0
 40
2.5
  1
#4 Electric
  7
Vcadd_Helvet
 72
     1
 11
-213.608025
 21
-532.811089
 31
0.0
100
AcDbText
  0
INSERT
  5
30C
100
AcDbEntity
  8
0
370
     0
390
0
  6
Continuous
 62
    94
100
AcDbBlockReference
  2
hanging position oval
 10
-213.608025
 20
-535.811089
 30
0.0
  0
TEXT
  5
30D
100
AcDbEntity
  8
0
370
     0
390
0
  6
Continuous
 62
   174
100
AcDbText
 10
-220.85672
 20
-535.811089
 30
0.0
 40
1.75
  1
15'-4" Trim
  7
Vcadd_Helvet
 72
     1
 11
-213.608025
 21
-535.811089
 31
0.0
100
AcDbText
  0
LINE
  5
30E
100
AcDbEntity
  8
hidden positions
370
     0
390
0
  6
DOT
 62
    54
100
AcDbLine
 10
-370.854163
 20
-995.55876
 30
0.0
 11
-379.854163
 21
-995.55876
 31
0.0
  0
LINE
  5
30F
100
AcDbEntity
  8
hidden positions
370
     0
390
0
  6
DOT
 62
    54
100
AcDbLine
 10
-387.854163
 20
-995.55876
 30
0.0
 11
-450.854163
 21
-995.55876
 31
0.0
  0
LINE
  5
310
100
AcDbEntity
  8
hidden positions
370
     0
390
0
  6
DOT
 62
    54
100
AcDbLine
 10
-370.854163
 20
-994.55876
 30
0.0
 11
-379.854163
 21
-994.55876
 31
0.0
  0
LINE
  5
311
100
AcDbEntity
  8
hidden positions
370
     0
390
0
  6
DOT
 62
    54
100
AcDbLine
 10
-387.854163
 20
-994.55876
 30
0.0
 11
-450.854163
 21
-994.55876
 31
0.0
  0
LINE
  5
312
100
AcDbEntity
  8
hidden positions
370
     0
390
0
  6
DOT
 62
    54
100
AcDbLine
 10
-370.854163
 20
-993.55876
 30
0.0
 11
-379.854163
 21
-993.55876
 31
0.0
  0
LINE
  5
313
100
AcDbEntity
  8
hidden positions
370
     0
390
0
  6
DOT
 62
    54
100
AcDbLine
 10
-387.854163
 20
-993.55876
 30
0.0
 11
-450.854163
 21
-993.55876
 31
0.0
  0
INSERT
  5
314
100
AcDbEntity
  8
0
370
     0
390
0
  6
Continuous
 62
    94
100
AcDbBlockReference
  2
2ft rule
 10
-26.336376
 20
-780.55876
 30
0.0
 50
90.0
  0
TEXT
  5
315
100
AcDbEntity
  8
0
370
     0
390
0
  6
Continuous
 62
   174
100
AcDbText
 10
-37.644439
 20
-770.05876
 30
0.0
 40
3.0
  1
1'
  7
Vcadd_Helvet
 72
     2
 11
-35.336376
 21
-770.05876
 31
0.0
100
AcDbText
  0
LINE
  5
316
100
AcDbEntity
  8
0
370
     0
390
0
  6
Continuous
 62
    94
100
AcDbLine
 10
-26.336376
 20
-780.55876
 30
0.0
 11
-44.336376
 21
-780.55876
 31
0.0
  0
INSERT
  5
317
100
AcDbEntity
  8
0
370
     0
390
0
  6
Continuous
 62
    94
100
AcDbBlockReference
  2
2ft rule
 10
-26.336376
 20
-564.55876
 30
0.0
 50
90.0
  0
INSERT
  5
318
100
AcDbEntity
  8
0
370
     0
390
0
  6
Continuous
 62
    94
100
AcDbBlockReference
  2
2ft rule
 10
-26.336376
 20
-540.55876
 30
0.0
 50
90.0
  0
INSERT
  5
319
100
AcDbEntity
  8
0
370
     0
390
0
  6
Continuous
 62
    94
100
AcDbBlockReference
  2
2ft rule
 10
-26.336376
 20
-588.55876
 30
0.0
 50
90.0
  0
INSERT
  5
31A
100
AcDbEntity
  8
0
370
     0
390
0
  6
Continuous
 62
    94
100
AcDbBlockReference
  2
2ft rule
 10
-26.336376
 20
-612.55876
 30
0.0
 50
90.0
  0
INSERT
  5
31B
100
AcDbEntity
  8
0
370
     0
390
0
  6
Continuous
 62
    94
100
AcDbBlockReference
  2
2ft rule
 10
-26.336376
 20
-636.55876
 30
0.0
 50
90.0
  0
INSERT
  5
31C
100
AcDbEntity
  8
0
370
     0
390
0
  6
Continuous
 62
    94
100
AcDbBlockReference
  2
2ft rule
 10
-26.336376
 20
-660.55876
 30
0.0
 50
90.0
  0
INSERT
  5
31D
100
AcDbEntity
  8
0
370
     0
390
0
  6
Continuous
 62
    94
100
AcDbBlockReference
  2
2ft rule
 10
-26.336376
 20
-684.55876
 30
0.0
 50
90.0
  0
INSERT
  5
31E
100
AcDbEntity
  8
0
370
     0
390
0
  6
Continuous
 62
    94
100
AcDbBlockReference
  2
2ft rule
 10
-26.336376
 20
-708.55876
 30
0.0
 50
90.0
  0
INSERT
  5
31F
100
AcDbEntity
  8
0
370
     0
390
0
  6
Continuous
 62
    94
100
AcDbBlockReference
  2
2ft rule
 10
-26.336376
 20
-732.55876
 30
0.0
 50
90.0
  0
INSERT
  5
320
100
AcDbEntity
  8
0
370
     0
390
0
  6
Continuous
 62
    94
100
AcDbBlockReference
  2
2ft rule
 10
-26.336376
 20
-756.55876
 30
0.0
 50
90.0
  0
TEXT
  5
321
100
AcDbEntity
  8
0
370
     0
390
0
  6
Continuous
 62
   174
100
AcDbText
 10
-38.729829
 20
-746.05876
 30
0.0
 40
3.0
  1
3'
  7
Vcadd_Helvet
 72
     2
 11
-35.336376
 21
-746.05876
 31
0.0
100
AcDbText
  0
TEXT
  5
322
100
AcDbEntity
  8
0
370
     0
390
0
  6
Continuous
 62
   174
100
AcDbText
 10
-38.755683
 20
-722.05876
 30
0.0
 40
3.0
  1
5'
  7
Vcadd_Helvet
 72
     2
 11
-35.336376
 21
-722.05876
 31
0.0
100
AcDbText
  0
TEXT
  5
323
100
AcDbEntity
  8
0
370
     0
390
0
  6
Continuous
 62
   174
100
AcDbText
 10
-38.737311
 20
-698.05876
 30
0.0
 40
3.0
  1
7'
  7
Vcadd_Helvet
 72
     2
 11
-35.336376
 21
-698.05876
 31
0.0
100
AcDbText
  0
TEXT
  5
324
100
AcDbEntity
  8
0
370
     0
390
0
  6
Continuous
 62
   174
100
AcDbText
 10
-38.70587
 20
-674.05876
 30
0.0
 40
3.0
  1
9'
  7
Vcadd_Helvet
 72
     2
 11
-35.336376
 21
-674.05876
 31
0.0
100
AcDbText
  0
TEXT
  5
325
100
AcDbEntity
  8
0
370
     0
390
0
  6
Continuous
 62
   174
100
AcDbText
 10
-39.506249
 20
-650.05876
 30
0.0
 40
3.0
  1
11'
  7
Vcadd_Helvet
 72
     2
 11
-35.336376
 21
-650.05876
 31
0.0
100
AcDbText
  0
TEXT
  5
326
100
AcDbEntity
  8
0
370
     0
390
0
  6
Continuous
 62
   174
100
AcDbText
 10
-40.591638
 20
-626.05876
 30
0.0
 40
3.0
  1
13'
  7
Vcadd_Helvet
 72
     2
 11
-35.336376
 21
-626.05876
 31
0.0
100
AcDbText
  0
TEXT
  5
327
100
AcDbEntity
  8
0
370
     0
390
0
  6
Continuous
 62
   174
100
AcDbText
 10
-40.617493
 20
-602.05876
 30
0.0
 40
3.0
  1
15'
  7
Vcadd_Helvet
 72
     2
 11
-35.336376
 21
-602.05876
 31
0.0
100
AcDbText
  0
TEXT
  5
328
100
AcDbEntity
  8
0
370
     0
390
0
  6
Continuous
 62
   174
100
AcDbText
 10
-40.59912
 20
-578.05876
 30
0.0
 40
3.0
  1
17'
  7
Vcadd_Helvet
 72
     2
 11
-35.336376
 21
-578.05876
 31
0.0
100
AcDbText
  0
TEXT
  5
329
100
AcDbEntity
  8
0
370
     0
390
0
  6
Continuous
 62
   174
100
AcDbText
 10
-40.567679
 20
-554.05876
 30
0.0
 40
3.0
  1
19'
  7
Vcadd_Helvet
 72
     2
 11
-35.336376
 21
-554.05876
 31
0.0
100
AcDbText
  0
TEXT
  5
32A
100
AcDbEntity
  8
0
370
     0
390
0
  6
Continuous
 62
   174
100
AcDbText
 10
-40.604082
 20
-530.05876
 30
0.0
 40
3.0
  1
21'
  7
Vcadd_Helvet
 72
     2
 11
-35.336376
 21
-530.05876
 31
0.0
100
AcDbText
  0
TEXT
  5
32B
100
AcDbEntity
  8
0
370
     0
390
0
  6
Continuous
 62
   174
100
AcDbText
 10
-156.904757
 20
-688.014722
 30
0.0
 40
2.5
  1
#2 Electric
  7
Vcadd_Helvet
 72
     1
 11
-146.263103
 21
-688.014722
 31
0.0
100
AcDbText
  0
INSERT
  5
32C
100
AcDbEntity
  8
0
370
     0
390
0
  6
Continuous
 62
    94
100
AcDbBlockReference
  2
hanging position oval
 10
-146.263103
 20
-691.014722
 30
0.0
  0
TEXT
  5
32D
100
AcDbEntity
  8
0
370
     0
390
0
  6
Continuous
 62
   174
100
AcDbText
 10
-153.511798
 20
-691.014722
 30
0.0
 40
1.75
  1
15'-4" Trim
  7
Vcadd_Helvet
 72
     1
 11
-146.263103
 21
-691.014722
 31
0.0
100
AcDbText
  0
TEXT
  5
32E
100
AcDbEntity
  8
0
370
     0
390
0
  6
Continuous
 62
   174
100
AcDbText
 10
-598.961957
 20
-574.709742
 30
0.0
 40
2.5
  1
#7 Electric
  7
Vcadd_Helvet
 72
     1
 11
-588.322371
 21
-574.709742
 31
0.0
100
AcDbText
  0
INSERT
  5
32F
100
AcDbEntity
  8
0
370
     0
390
0
  6
Continuous
 62
    94
100
AcDbBlockReference
  2
hanging position oval
 10
-588.322371
 20
-577.709742
 30
0.0
 41
-1.0
  0
TEXT
  5
330
100
AcDbEntity
  8
0
370
     0
390
0
  6
Continuous
 62
   174
100
AcDbText
 10
-595.571066
 20
-577.709742
 30
0.0
 40
1.75
  1
15'-4" Trim
  7
Vcadd_Helvet
 72
     1
 11
-588.322371
 21
-577.709742
 31
0.0
100
AcDbText
  0
TEXT
  5
331
100
AcDbEntity
  8
0
370
     0
390
0
  6
Continuous
 62
   174
100
AcDbText
 10
-607.114204
 20
-669.20465
 30
0.0
 40
2.5
  1
#8 Electric
  7
Vcadd_Helvet
 72
     1
 11
-596.470834
 21
-669.20465
 31
0.0
100
AcDbText
  0
INSERT
  5
332
100
AcDbEntity
  8
0
370
     0
390
0
  6
Continuous
 62
    94
100
AcDbBlockReference
  2
hanging position oval
 10
-596.470834
 20
-672.20465
 30
0.0
 41
-1.0
  0
TEXT
  5
333
100
AcDbEntity
  8
0
370
     0
390
0
  6
Continuous
 62
   174
100
AcDbText
 10
-603.719529
 20
-672.20465
 30
0.0
 40
1.75
  1
15'-4" Trim
  7
Vcadd_Helvet
 72
     1
 11
-596.470834
 21
-672.20465
 31
0.0
100
AcDbText
  0
INSERT
  5
334
100
AcDbEntity
  8
0
370
     0
390
0
  6
Continuous
 62
    94
100
AcDbBlockReference
  2
sightln
 10
-267.352599
 20
-808.55876
 30
0.0
 50
270.0
  0
ENDSEC
  0
SECTION
  2
OBJECTS
  0
DICTIONARY
  5
19
100
AcDbDictionary
280
     0
281
     1
  3
ACAD_GROUP
350
1A
  3
ACAD_MLINESTYLE
350
1B
  3
ACAD_LAYOUT
350
1E
  3
ACAD_PLOTSETTINGS
350
22
  3
ACAD_PLOTSTYLENAME
350
1F
  3
ACAD_WIPEOUT_VARS
350
23
  0
DICTIONARY
  5
1A
102
{ACAD_REACTORS
330
19
102
}
100
AcDbDictionary
280
     0
281
     1
  0
DICTIONARY
  5
1B
102
{ACAD_REACTORS
330
19
102
}
100
AcDbDictionary
280
     0
281
     1
  3
Standard
350
1C
  0
MLINESTYLE
  5
1C
102
{ACAD_REACTORS
330
1B
102
}
100
AcDbMlineStyle
  2
Standard
 70
     0
  3

 62
     0
 51
90.0
 52
90.0
 71
     2
 49
0.5
 62
   256
  6
ByLayer
 49
-0.5
 62
   256
  6
ByLayer
  0
ACDBDICTIONARYWDFLT
  5
1F
102
{ACAD_REACTORS
330
19
102
}
100
AcDbDictionary
281
     1
  3
Normal
350
1D
100
AcDbDictionaryWithDefault
340
1D
  0
ACDBPLACEHOLDER
  5
1D
102
{ACAD_REACTORS
330
1F
102
}
  0
LAYOUT
  5
20
102
{ACAD_REACTORS
330
1E
102
}
100
AcDbPlotSettings
  1

  2

  4

  6

 40
0.0
 41
0.0
 42
0.0
 43
0.0
 44
0.0
 45
0.0
 46
0.0
 47
0.0
 48
0.0
 49
0.0
140
0.0
141
0.0
142
1.0
143
1.0
 70
  1024
 72
     0
 73
     0
 74
     0
  7

 75
     0
147
1.0
148
0.0
149
0.0
100
AcDbLayout
  1
Model
 70
     0
 71
     0
 10
0.0
 20
0.0
 11
0.0
 21
0.0
 12
0.0
 22
0.0
 32
0.0
 14
0.0
 24
0.0
 34
0.0
 15
0.0
 25
0.0
 35
0.0
146
0.0
 13
0.0
 23
0.0
 33
0.0
 16
0.0
 26
0.0
 36
0.0
 17
0.0
 27
0.0
 37
0.0
 76
     0
330
A
331
0
345
0
346
0
  0
LAYOUT
  5
21
102
{ACAD_REACTORS
330
1E
102
}
100
AcDbPlotSettings
  1

  2

  4

  6

 40
0.0
 41
0.0
 42
0.0
 43
0.0
 44
0.0
 45
0.0
 46
0.0
 47
0.0
 48
0.0
 49
0.0
140
0.0
141
0.0
142
1.0
143
1.0
 70
     0
 72
     0
 73
     0
 74
     0
  7

 75
     0
147
1.0
148
0.0
149
0.0
100
AcDbLayout
  1
Layout1
 70
     0
 71
     0
 10
0.0
 20
0.0
 11
0.0
 21
0.0
 12
0.0
 22
0.0
 32
0.0
 14
0.0
 24
0.0
 34
0.0
 15
0.0
 25
0.0
 35
0.0
146
0.0
 13
0.0
 23
0.0
 33
0.0
 16
0.0
 26
0.0
 36
0.0
 17
0.0
 27
0.0
 37
0.0
 76
     0
330
B
331
0
345
0
346
0
  0
DICTIONARY
  5
1E
102
{ACAD_REACTORS
330
19
102
}
100
AcDbDictionary
280
     0
281
     1
  3
Layout1
350
21
  3
Model
350
20
  0
DICTIONARY
  5
22
102
{ACAD_REACTORS
330
19
102
}
100
AcDbDictionary
280
     0
281
     1
  0
WIPEOUTVARIABLES
  5
23
100
AcDbWipeoutVariables
 70
     1
  0
ENDSEC
  0
EOF
