  0
SECTION
  2
HEADER
  9
$ACADVER
  1
AC1015
  9
$ACADMAINTVER
 70
     6
  9
$DWGCODEPAGE
  3
ANSI_1252
  9
$INSBASE
 10
0.0
 20
0.0
 30
0.0
  9
$EXTMIN
 10
-79.84211
 20
-314.996246
 30
0.0
  9
$EXTMAX
 10
660.072876
 20
205.408783
 30
0.0
  9
$LIMMIN
 10
0.0
 20
0.0
  9
$LIMMAX
 10
0.0
 20
0.0
  9
$ORTHOMODE
 70
     0
  9
$REGENMODE
 70
     1
  9
$FILLMODE
 70
     1
  9
$QTEXTMODE
 70
     0
  9
$MIRRTEXT
 70
     1
  9
$LTSCALE
 40
1.0
  9
$ATTMODE
 70
     1
  9
$TEXTSIZE
 40
0.2
  9
$TRACEWID
 40
0.05
  9
$TEXTSTYLE
  7
Standard
  9
$CLAYER
  8
0
  9
$CELTYPE
  6
Continuous
  9
$CECOLOR
 62
   256
  9
$CELTSCALE
 40
1.0
  9
$DISPSILH
 70
     0
  9
$DIMSCALE
 40
1.0
  9
$DIMASZ
 40
0.18
  9
$DIMEXO
 40
0.0625
  9
$DIMDLI
 40
0.38
  9
$DIMRND
 40
0.0
  9
$DIMDLE
 40
0.0
  9
$DIMEXE
 40
0.18
  9
$DIMTP
 40
0.0
  9
$DIMTM
 40
0.0
  9
$DIMTXT
 40
0.18
  9
$DIMCEN
 40
0.09
  9
$DIMTSZ
 40
0.0
  9
$DIMTOL
 70
     0
  9
$DIMLIM
 70
     0
  9
$DIMTIH
 70
     1
  9
$DIMTOH
 70
     1
  9
$DIMSE1
 70
     0
  9
$DIMSE2
 70
     0
  9
$DIMTAD
 70
     0
  9
$DIMZIN
 70
     0
  9
$DIMBLK
  1

  9
$DIMASO
 70
     1
  9
$DIMSHO
 70
     1
  9
$DIMPOST
  1

  9
$DIMAPOST
  1

  9
$DIMALT
 70
     0
  9
$DIMALTD
 70
     2
  9
$DIMALTF
 40
25.4
  9
$DIMLFAC
 40
1.0
  9
$DIMTOFL
 70
     0
  9
$DIMTVP
 40
0.0
  9
$DIMTIX
 70
     0
  9
$DIMSOXD
 70
     0
  9
$DIMSAH
 70
     0
  9
$DIMBLK1
  1

  9
$DIMBLK2
  1

  9
$DIMSTYLE
  2
Standard
  9
$DIMCLRD
 70
     0
  9
$DIMCLRE
 70
     0
  9
$DIMCLRT
 70
     0
  9
$DIMTFAC
 40
1.0
  9
$DIMGAP
 40
0.09
  9
$DIMJUST
 70
     0
  9
$DIMSD1
 70
     0
  9
$DIMSD2
 70
     0
  9
$DIMTOLJ
 70
     1
  9
$DIMTZIN
 70
     0
  9
$DIMALTZ
 70
     0
  9
$DIMALTTZ
 70
     0
  9
$DIMUPT
 70
     0
  9
$DIMDEC
 70
     4
  9
$DIMTDEC
 70
     4
  9
$DIMALTU
 70
     2
  9
$DIMALTTD
 70
     2
  9
$DIMTXSTY
  7
Standard
  9
$DIMAUNIT
 70
     0
  9
$DIMADEC
 70
     0
  9
$DIMALTRND
 40
0.0
  9
$DIMAZIN
 70
     0
  9
$DIMDSEP
 70
     0
  9
$DIMATFIT
 70
     3
  9
$DIMFRAC
 70
     0
  9
$DIMLDRBLK
  1

  9
$DIMLUNIT
 70
     2
  9
$DIMLWD
 70
     0
  9
$DIMLWE
 70
     0
  9
$DIMTMOVE
 70
     0
  9
$LUNITS
 70
     2
  9
$LUPREC
 70
     4
  9
$SKETCHINC
 40
0.1
  9
$FILLETRAD
 40
0.0
  9
$AUNITS
 70
     0
  9
$AUPREC
 70
     0
  9
$MENU
  1
acad
  9
$ELEVATION
 40
0.0
  9
$PELEVATION
 40
0.0
  9
$THICKNESS
 40
0.0
  9
$LIMCHECK
 70
     0
  9
$CHAMFERA
 40
0.0
  9
$CHAMFERB
 40
0.0
  9
$CHAMFERC
 40
0.0
  9
$CHAMFERD
 40
0.0
  9
$SKPOLY
 70
     0
  9
$TDCREATE
 40
0.000000000
  9
$TDUCREATE
 40
0.000000000
  9
$TDUPDATE
 40
0.000000000
  9
$TDUUPDATE
 40
0.000000000
  9
$TDINDWG
 40
0.0000000000
  9
$TDUSRTIMER
 40
0.0000000000
  9
$USRTIMER
 70
     1
  9
$ANGBASE
 50
0.0
  9
$ANGDIR
 70
     0
  9
$PDMODE
 70
     2
  9
$PDSIZE
 40
-1.0
  9
$PLINEWID
 40
0.0
  9
$SPLFRAME
 70
     0
  9
$SPLINETYPE
 70
     6
  9
$SPLINESEGS
 70
     8
  9
$HANDSEED
  5
237
  9
$SURFTAB1
 70
     6
  9
$SURFTAB2
 70
     6
  9
$SURFTYPE
 70
     6
  9
$SURFU
 70
     6
  9
$SURFV
 70
     6
  9
$UCSBASE
  2

  9
$UCSNAME
  2

  9
$UCSORG
 10
0.0
 20
0.0
 30
0.0
  9
$UCSXDIR
 10
1.0
 20
0.0
 30
0.0
  9
$UCSYDIR
 10
0.0
 20
1.0
 30
0.0
  9
$UCSORTHOREF
  2

  9
$UCSORTHOVIEW
 70
     0
  9
$UCSORGTOP
 10
0.0
 20
0.0
 30
0.0
  9
$UCSORGBOTTOM
 10
0.0
 20
0.0
 30
0.0
  9
$UCSORGLEFT
 10
0.0
 20
0.0
 30
0.0
  9
$UCSORGRIGHT
 10
0.0
 20
0.0
 30
0.0
  9
$UCSORGFRONT
 10
0.0
 20
0.0
 30
0.0
  9
$UCSORGBACK
 10
0.0
 20
0.0
 30
0.0
  9
$PUCSBASE
  2

  9
$PUCSNAME
  2

  9
$PUCSORG
 10
0.0
 20
0.0
 30
0.0
  9
$PUCSXDIR
 10
1.0
 20
0.0
 30
0.0
  9
$PUCSYDIR
 10
0.0
 20
1.0
 30
0.0
  9
$PUCSORTHOREF
  2

  9
$PUCSORTHOVIEW
 70
     0
  9
$PUCSORGTOP
 10
0.0
 20
0.0
 30
0.0
  9
$PUCSORGBOTTOM
 10
0.0
 20
0.0
 30
0.0
  9
$PUCSORGLEFT
 10
0.0
 20
0.0
 30
0.0
  9
$PUCSORGRIGHT
 10
0.0
 20
0.0
 30
0.0
  9
$PUCSORGFRONT
 10
0.0
 20
0.0
 30
0.0
  9
$PUCSORGBACK
 10
0.0
 20
0.0
 30
0.0
  9
$USERI1
 70
     0
  9
$USERI2
 70
     0
  9
$USERI3
 70
     0
  9
$USERI4
 70
     0
  9
$USERI5
 70
     0
  9
$USERR1
 40
0.0
  9
$USERR2
 40
0.0
  9
$USERR3
 40
0.0
  9
$USERR4
 40
0.0
  9
$USERR5
 40
0.0
  9
$WORLDVIEW
 70
     1
  9
$SHADEDGE
 70
     3
  9
$SHADEDIF
 70
    70
  9
$TILEMODE
 70
     1
  9
$MAXACTVP
 70
    16
  9
$PINSBASE
 10
0.0
 20
0.0
 30
0.0
  9
$PLIMCHECK
 70
     0
  9
$PEXTMIN
 10
1.000000E+20
 20
1.000000E+20
 30
1.000000E+20
  9
$PEXTMAX
 10
-1.000000E+20
 20
-1.000000E+20
 30
-1.000000E+20
  9
$PLIMMIN
 10
0.0
 20
0.0
  9
$PLIMMAX
 10
12.0
 20
9.0
  9
$UNITMODE
 70
     0
  9
$VISRETAIN
 70
     0
  9
$PLINEGEN
 70
     1
  9
$PSLTSCALE
 70
     0
  9
$TREEDEPTH
 70
  3020
  9
$CMLSTYLE
  2
Standard
  9
$CMLJUST
 70
     0
  9
$CMLSCALE
 40
1.0
  9
$PROXYGRAPHICS
 70
     0
  9
$MEASUREMENT
 70
     0
  9
$CELWEIGHT
370
     0
  9
$ENDCAPS
280
     0
  9
$JOINSTYLE
280
     0
  9
$LWDISPLAY
290
     1
  9
$INSUNITS
 70
     0
  9
$HYPERLINKBASE
  1

  9
$STYLESHEET
  1

  9
$XEDIT
290
     1
  9
$CEPSNTYPE
380
     0
  9
$PSTYLEMODE
290
     1
  9
$FINGERPRINTGUID
  2

  9
$VERSIONGUID
  2

  9
$EXTNAMES
290
     1
  9
$PSVPSCALE
 40
0.0
  0
ENDSEC
  0
SECTION
  2
CLASSES
  0
CLASS
  1
LWPOLYLINE
  2
AcDbPolyline
  3
AutoCAD 2000
 90
        0
280
     0
281
     1
  0
CLASS
  1
IMAGE
  2
AcDbRasterImage
  3
ISM
 90
      127
280
     0
281
     1
  0
CLASS
  1
OLE2FRAME
  2
AcDbOle2Frame
  3
AutoCAD 2000
 90
        0
280
     0
281
     1
  0
CLASS
  1
HATCH
  2
AcDbHatch
  3
AutoCAD 2000
 90
        0
280
     0
281
     1
  0
CLASS
  1
DICTIONARYVAR
  2
AcDbDictionaryVar
  3
AutoCAD 2000
 90
        0
280
     0
281
     0
  0
CLASS
  1
RASTERVARIABLES
  2
AcDbRasterVariables
  3
ISM
 90
        0
280
     0
281
     0
  0
CLASS
  1
IMAGEDEF
  2
AcDbRasterImageDef
  3
ISM
 90
        0
280
     0
281
     0
  0
CLASS
  1
IMAGEDEF_REACTOR
  2
AcDbRasterImageDefReactor
  3
ISM
 90
        1
280
     0
281
     0
  0
CLASS
  1
IDBUFFER
  2
AcDbIdBuffer
  3
AutoCAD 2000
 90
        0
280
     0
281
     0
  0
CLASS
  1
SPATIAL_FILTER
  2
AcDbSpatialFilter
  3
AutoCAD 2000
 90
        0
280
     0
281
     0
  0
CLASS
  1
XRECORD
  2
AcDbXrecord
  3
AutoCAD 2000
 90
        0
280
     0
281
     0
  0
CLASS
  1
SORTENTSTABLE
  2
AcDbSortentsTable
  3
AutoCAD 2000
 90
        0
280
     0
281
     0
  0
CLASS
  1
LAYER_INDEX
  2
AcDbLayerIndex
  3
AutoCAD 2000
 90
        0
280
     0
281
     0
  0
CLASS
  1
SPATIAL_INDEX
  2
AcDbSpatialIndex
  3
AutoCAD 2000
 90
        0
280
     0
281
     0
  0
CLASS
  1
OBJECT_PTR
  2
CAseDLPNTableRecord
  3
"ASE-LPNTableRecord"
 90
        1
280
     0
281
     0
  0
CLASS
  1
LAYOUT
  2
AcDbLayout
  3
AutoCAD 2000
 90
        0
280
     0
281
     0
  0
CLASS
  1
PLOTSETTINGS
  2
AcDbPlotSettings
  3
AutoCAD 2000
 90
        0
280
     0
281
     0
  0
CLASS
  1
ACDBDICTIONARYWDFLT
  2
AcDbDictionaryWithDefault
  3
AutoCAD 2000
 90
        0
280
     0
281
     0
  0
CLASS
  1
ACDBPLACEHOLDER
  2
AcDbPlaceHolder
  3
AutoCAD 2000
 90
        0
280
     0
281
     0
  0
CLASS
  1
VBA_PROJECT
  2
AcDbVbaProject
  3
acadvba
 90
        0
280
     0
281
     0
  0
CLASS
  1
WIPEOUT
  2
AcDbWipeout
  3
WipeOut|AutoCAD Express Tool|expresstools@autodesk.com
 90
      127
280
     0
281
     1
  0
CLASS
  1
WIPEOUTVARIABLES
  2
AcDbWipeoutVariables
  3
WipeOut|AutoCAD Express Tool|expresstools@autodesk.com
 90
        0
280
     0
281
     0
  0
CLASS
  1
RTEXT
  2
RText
  3
RText|AutoCAD Express Tool|expresstools@autodesk.com
 90
        0
280
     0
281
     1
  0
CLASS
  1
ARCALIGNEDTEXT
  2
AcDbArcAlignedText
  3
ATEXT|AutoCAD Express Tool|expresstools@autodesk.com
 90
        0
280
     0
281
     1
  0
ENDSEC
  0
SECTION
  2
TABLES
  0
TABLE
  2
VPORT
  5
7
100
AcDbSymbolTable
 70
     2
  0
VPORT
  5
15
100
AcDbSymbolTableRecord
100
AcDbViewportTableRecord
  2
*ACTIVE
 70
     0
 10
0.0
 20
0.0
 11
1.0
 21
1.0
 12
6.591288
 22
4.579184
 13
0.0
 23
0.0
 14
1.0
 24
1.0
 15
0.0
 25
0.0
 16
0.0
 26
0.0
 36
1.0
 17
0.0
 27
0.0
 37
0.0
 40
9.158369
 41
0.688564
 42
50.0
 43
0.0
 44
0.0
 50
0.0
 51
0.0
 71
     0
 72
   100
 73
     1
 74
     1
 75
     0
 76
     0
 77
     0
 78
     0
281
     0
 65
     0
110
0.0
120
0.0
130
0.0
111
1.0
121
0.0
131
0.0
112
0.0
122
1.0
132
0.0
345
0
346
0
 79
     0
146
0.0
  0
VPORT
  5
236
100
AcDbSymbolTableRecord
100
AcDbViewportTableRecord
  2
MYVPORT
 70
     0
 10
0.0
 20
0.0
 11
1.0
 21
1.0
 12
6.21
 22
9.02
 13
0.0
 23
0.0
 14
1.0
 24
1.0
 15
0.0
 25
0.0
 16
0.0
 26
0.0
 36
1.0
 17
0.0
 27
0.0
 37
0.0
 40
18.04
 41
0.688564
 42
50.0
 43
0.0
 44
0.0
 50
0.0
 51
0.0
 71
     0
 72
   100
 73
     1
 74
     1
 75
     0
 76
     0
 77
     0
 78
     0
281
     0
 65
     0
110
0.0
120
0.0
130
0.0
111
1.0
121
0.0
131
0.0
112
0.0
122
1.0
132
0.0
345
0
346
0
 79
     0
146
0.0
  0
ENDTAB
  0
TABLE
  2
LTYPE
  5
4
100
AcDbSymbolTable
 70
     5
  0
LTYPE
  5
11
100
AcDbSymbolTableRecord
100
AcDbLinetypeTableRecord
  2
ByBlock
 70
    64
  3

 72
    65
 73
     0
 40
0.0
  0
LTYPE
  5
12
100
AcDbSymbolTableRecord
100
AcDbLinetypeTableRecord
  2
ByLayer
 70
    64
  3

 72
    65
 73
     0
 40
0.0
  0
LTYPE
  5
13
100
AcDbSymbolTableRecord
100
AcDbLinetypeTableRecord
  2
Continuous
 70
    64
  3
Solid line
 72
    65
 73
     0
 40
0.0
  0
LTYPE
  5
60
100
AcDbSymbolTableRecord
100
AcDbLinetypeTableRecord
  2
DOT
 70
    64
  3
Visual CADD Translation
 72
    65
 73
     2
 40
0.1
 49
0.0
 74
     0
 49
-0.1
 74
     0
  0
LTYPE
  5
148
100
AcDbSymbolTableRecord
100
AcDbLinetypeTableRecord
  2
CENTER
 70
    64
  3
Visual CADD Translation
 72
    65
 73
     4
 40
1.265
 49
0.115
 74
     0
 49
-0.07
 74
     0
 49
1.01
 74
     0
 49
-0.07
 74
     0
  0
ENDTAB
  0
TABLE
  2
LAYER
  5
2
100
AcDbSymbolTable
 70
    19
  0
LAYER
  5
14
100
AcDbSymbolTableRecord
100
AcDbLayerTableRecord
  2
0
 70
     0
 62
     7
  6
Continuous
290
     1
370
    -3
390
1D
  0
LAYER
  5
24
100
AcDbSymbolTableRecord
100
AcDbLayerTableRecord
  2
POS-HIDDEN
 70
     0
 62
     7
  6
Continuous
290
     1
370
    -3
390
1D
  0
LAYER
  5
25
100
AcDbSymbolTableRecord
100
AcDbLayerTableRecord
  2
POS-REVEAL
 70
     0
 62
     7
  6
Continuous
290
     1
370
    -3
390
1D
  0
LAYER
  5
26
100
AcDbSymbolTableRecord
100
AcDbLayerTableRecord
  2
TITLE BLOCK
 70
     0
 62
     7
  6
Continuous
290
     1
370
    -3
390
1D
  0
LAYER
  5
27
100
AcDbSymbolTableRecord
100
AcDbLayerTableRecord
  2
LEGEND
 70
     0
 62
     7
  6
Continuous
290
     1
370
    -3
390
1D
  0
LAYER
  5
28
100
AcDbSymbolTableRecord
100
AcDbLayerTableRecord
  2
BORDER
 70
     0
 62
     7
  6
Continuous
290
     1
370
    -3
390
1D
  0
LAYER
  5
29
100
AcDbSymbolTableRecord
100
AcDbLayerTableRecord
  2
LAMPS
 70
     0
 62
     7
  6
Continuous
290
     1
370
    -3
390
1D
  0
LAYER
  5
2A
100
AcDbSymbolTableRecord
100
AcDbLayerTableRecord
  2
SCRATCH
 70
     0
 62
     7
  6
Continuous
290
     1
370
    -3
390
1D
  0
LAYER
  5
2B
100
AcDbSymbolTableRecord
100
AcDbLayerTableRecord
  2
HOUSE CIRCUITS
 70
     0
 62
     7
  6
Continuous
290
     1
370
    -3
390
1D
  0
LAYER
  5
2C
100
AcDbSymbolTableRecord
100
AcDbLayerTableRecord
  2
Hash Marks
 70
     0
 62
     7
  6
Continuous
290
     1
370
    -3
390
1D
  0
LAYER
  5
2D
100
AcDbSymbolTableRecord
100
AcDbLayerTableRecord
  2
Boomz
 70
     0
 62
     7
  6
Continuous
290
     1
370
    -3
390
1D
  0
LAYER
  5
2E
100
AcDbSymbolTableRecord
100
AcDbLayerTableRecord
  2
Area Centers
 70
     0
 62
     7
  6
Continuous
290
     1
370
    -3
390
1D
  0
LAYER
  5
2F
100
AcDbSymbolTableRecord
100
AcDbLayerTableRecord
  2
Box Booms
 70
     0
 62
     7
  6
Continuous
290
     1
370
    -3
390
1D
  0
LAYER
  5
30
100
AcDbSymbolTableRecord
100
AcDbLayerTableRecord
  2
Color Changes
 70
     0
 62
     7
  6
Continuous
290
     1
370
    -3
390
1D
  0
LAYER
  5
31
100
AcDbSymbolTableRecord
100
AcDbLayerTableRecord
  2
Hidden Clr Chg
 70
     0
 62
     7
  6
Continuous
290
     1
370
    -3
390
1D
  0
LAYER
  5
32
100
AcDbSymbolTableRecord
100
AcDbLayerTableRecord
  2
Grid
 70
     0
 62
     7
  6
Continuous
290
     1
370
    -3
390
1D
  0
LAYER
  5
33
100
AcDbSymbolTableRecord
100
AcDbLayerTableRecord
  2
.5  inch
 70
     0
 62
     7
  6
Continuous
290
     1
370
    -3
390
1D
  0
LAYER
  5
34
100
AcDbSymbolTableRecord
100
AcDbLayerTableRecord
  2
.25 inch
 70
     0
 62
     7
  6
Continuous
290
     1
370
    -3
390
1D
  0
LAYER
  5
35
100
AcDbSymbolTableRecord
100
AcDbLayerTableRecord
  2
arclight
 70
     0
 62
     7
  6
Continuous
290
     1
370
    -3
390
1D
  0
ENDTAB
  0
TABLE
  2
STYLE
  5
3
100
AcDbSymbolTable
 70
     3
  0
STYLE
  5
17
100
AcDbSymbolTableRecord
100
AcDbTextStyleTableRecord
  2
Standard
 70
     0
 40
0.0
 41
1.0
 50
0.0
 71
     0
 42
0.0
  3
txt
  4

  0
STYLE
  5
3D
100
AcDbSymbolTableRecord
100
AcDbTextStyleTableRecord
  2
Vcadd_ENGINEER
 70
     0
 40
0.0
 41
1.0
 50
0.0
 71
     0
 42
0.0
  3
ENGINEER
  4

  0
STYLE
  5
1DC
100
AcDbSymbolTableRecord
100
AcDbTextStyleTableRecord
  2
Vcadd_HANDLETTER
 70
     0
 40
0.0
 41
1.0
 50
0.0
 71
     0
 42
0.0
  3
HANDLETTER
  4

  0
ENDTAB
  0
TABLE
  2
VIEW
  5
5
100
AcDbSymbolTable
 70
     0
  0
ENDTAB
  0
TABLE
  2
UCS
  5
6
100
AcDbSymbolTable
 70
     1
  0
UCS
  5
235
100
AcDbSymbolTableRecord
100
AcDbUCSTableRecord
  2
MYUCS
 70
     0
 10
0.0
 20
0.0
 30
0.0
 11
0.0
 21
1.0
 31
0.0
 12
0.0
 22
0.0
 32
1.0
 79
     0
146
0.0
  0
ENDTAB
  0
TABLE
  2
APPID
  5
8
100
AcDbSymbolTable
 70
     1
  0
APPID
  5
16
100
AcDbSymbolTableRecord
100
AcDbRegAppTableRecord
  2
ACAD
 70
     0
  0
ENDTAB
  0
TABLE
  2
DIMSTYLE
  5
9
100
AcDbSymbolTable
 70
     2
100
AcDbDimStyleTable
 71
     0
  0
DIMSTYLE
105
18
100
AcDbSymbolTableRecord
100
AcDbDimStyleTableRecord
  2
Standard
 70
     0
  3

  4

 40
1.0
 41
0.18
 42
0.0625
 43
0.38
 44
0.18
 45
0.0
 46
0.0
 47
0.0
 48
0.0
 71
     0
 72
     0
 73
     1
 74
     1
 75
     0
 76
     0
 77
     0
 78
     0
 79
     0
140
0.18
141
0.09
142
0.0
143
25.4
144
1.0
145
0.0
146
1.0
147
0.09
148
0.0
170
     0
171
     2
172
     0
173
     0
174
     0
175
     0
176
     0
177
     0
178
     0
179
     0
271
     4
272
     4
273
     2
274
     2
275
     0
276
     0
277
     2
278
    46
279
     0
280
     0
281
     0
282
     0
283
     1
284
     0
285
     0
286
     0
288
     0
289
     3
340
17
341
0
342
0
343
0
344
0
371
    -2
372
    -2
  0
DIMSTYLE
105
3E
100
AcDbSymbolTableRecord
100
AcDbDimStyleTableRecord
  2
VCADD_DIMSTYLE
 70
     0
  3

  4

 40
1.0
 41
1.0
 42
0.2
 43
0.0
 44
0.2
 45
0.0
 46
0.0
 47
1.0
 48
1.0
 71
     0
 72
     0
 73
     0
 74
     1
 75
     0
 76
     0
 77
     0
 78
     3
 79
     0
140
3.0
141
0.0
142
0.0
143
25.4
144
1.0
145
0.0
146
1.0
147
0.2
148
0.0
170
     0
171
     4
172
     0
173
     0
174
     1
175
     0
176
     1
177
     1
178
     1
179
     4
271
     4
272
     4
273
     2
274
     2
275
     0
276
     0
277
     3
278
    46
279
     0
280
     0
281
     0
282
     0
283
     1
284
     0
285
     0
286
     0
288
     0
289
     3
340
3D
341
0
342
0
343
0
344
0
371
    -2
372
    -2
  0
ENDTAB
  0
TABLE
  2
BLOCK_RECORD
  5
1
100
AcDbSymbolTable
 70
     4
  0
BLOCK_RECORD
  5
A
100
AcDbSymbolTableRecord
100
AcDbBlockTableRecord
  2
*MODEL_SPACE
340
20
  0
BLOCK_RECORD
  5
B
100
AcDbSymbolTableRecord
100
AcDbBlockTableRecord
  2
*PAPER_SPACE
340
21
  0
BLOCK_RECORD
  5
36
100
AcDbSymbolTableRecord
100
AcDbBlockTableRecord
  2
_CLOSED
340
0
  0
BLOCK_RECORD
  5
115
100
AcDbSymbolTableRecord
100
AcDbBlockTableRecord
  2
hanging position
340
0
102
{BLKREFS
331
130
331
131
331
132
331
144
331
145
331
146
331
1AF
331
1DA
331
1DB
102
}
  0
BLOCK_RECORD
  5
154
100
AcDbSymbolTableRecord
100
AcDbBlockTableRecord
  2
centerline
340
0
102
{BLKREFS
331
1A8
102
}
  0
BLOCK_RECORD
  5
217
100
AcDbSymbolTableRecord
100
AcDbBlockTableRecord
  2
DRAPE
340
0
102
{BLKREFS
331
220
331
221
331
222
331
223
331
224
331
225
331
226
331
227
331
228
331
229
331
22A
331
22B
331
22C
331
22D
331
22E
331
22F
331
230
331
231
331
232
102
}
  0
ENDTAB
  0
ENDSEC
  0
SECTION
  2
BLOCKS
  0
BLOCK
  5
D
100
AcDbEntity
  8
0
390
0
100
AcDbBlockBegin
  2
*MODEL_SPACE
 70
     0
 10
0.0
 20
0.0
 30
0.0
  3
*MODEL_SPACE
  1

  0
ENDBLK
  5
E
100
AcDbEntity
  8
0
390
0
100
AcDbBlockEnd
  0
BLOCK
  5
F
100
AcDbEntity
 67
     1
  8
0
390
0
100
AcDbBlockBegin
  2
*PAPER_SPACE
 70
     0
 10
0.0
 20
0.0
 30
0.0
  3
*PAPER_SPACE
  1

  0
ENDBLK
  5
10
100
AcDbEntity
 67
     1
  8
0
390
0
100
AcDbBlockEnd
  0
BLOCK
  5
37
100
AcDbEntity
  8
0
390
0
100
AcDbBlockBegin
  2
_CLOSED
 70
     0
 10
0.0
 20
0.0
 30
0.0
  3
_CLOSED
  1

  0
LINE
  5
38
100
AcDbEntity
  8
0
370
    -2
390
0
  6
ByBlock
 62
     0
100
AcDbLine
 10
-1.0
 20
0.166667
 30
0.0
 11
0.0
 21
0.0
 31
0.0
  0
LINE
  5
39
100
AcDbEntity
  8
0
370
    -2
390
0
  6
ByBlock
 62
     0
100
AcDbLine
 10
0.0
 20
0.0
 30
0.0
 11
-1.0
 21
-0.166667
 31
0.0
  0
LINE
  5
3A
100
AcDbEntity
  8
0
370
    -2
390
0
  6
ByBlock
 62
     0
100
AcDbLine
 10
-1.0
 20
0.166667
 30
0.0
 11
-1.0
 21
-0.166667
 31
0.0
  0
LINE
  5
3B
100
AcDbEntity
  8
0
370
    -2
390
0
  6
ByBlock
 62
     0
100
AcDbLine
 10
0.0
 20
0.0
 30
0.0
 11
-1.0
 21
0.0
 31
0.0
  0
ENDBLK
  5
3C
100
AcDbEntity
  8
0
390
0
100
AcDbBlockEnd
  0
BLOCK
  5
116
100
AcDbEntity
  8
0
390
0
100
AcDbBlockBegin
  2
hanging position
 70
     0
 10
0.0
 20
0.0
 30
0.0
  3
hanging position
  1

  0
HATCH
  5
117
100
AcDbEntity
  8
TITLE BLOCK
370
     0
390
0
  6
Continuous
 62
    94
100
AcDbHatch
 10
0.0
 20
0.0
 30
0.0
210
0.0
220
0.0
230
1.0
  2
DASH
 70
     0
 71
     0
 91
        1
 92
        1
 93
        4
 72
     1
 10
8.0543968677519615
 20
0.0287225214191267
 11
9.0036156177518478
 21
0.0287225214191267
 72
     1
 10
9.0036156177518478
 20
0.0287225214191267
 11
0.94921875
 21
8.0831193891712019
 72
     1
 10
0.94921875
 20
8.0831193891712019
 11
0.0
 21
8.0831193891712019
 72
     1
 10
0.0
 20
8.0831193891712019
 11
8.0543968677519615
 21
0.0287225214191267
 97
        0
 75
     0
 76
     1
 52
45.0
 41
6.0
 77
     0
 78
     1
 53
45.0
 43
0.0
 44
0.0
 45
-0.0000000000000549
 46
1.0606601717798212
 79
     2
 49
0.75
 49
-0.75
 98
        1
 10
0.0
 20
0.0
  0
HATCH
  5
118
100
AcDbEntity
  8
TITLE BLOCK
370
     0
390
0
  6
Continuous
 62
    94
100
AcDbHatch
 10
0.0
 20
0.0
 30
0.0
210
0.0
220
0.0
230
1.0
  2
DASH
 70
     0
 71
     0
 91
        1
 92
        1
 93
        4
 72
     1
 10
8.0543968677519615
 20
0.0287225214191267
 11
9.0036156177518478
 21
0.0287225214191267
 72
     1
 10
9.0036156177518478
 20
0.0287225214191267
 11
0.94921875
 21
-8.0256743463330622
 72
     1
 10
0.94921875
 20
-8.0256743463330622
 11
0.0
 21
-8.0256743463330622
 72
     1
 10
0.0
 20
-8.0256743463330622
 11
8.0543968677519615
 21
0.0287225214191267
 97
        0
 75
     0
 76
     1
 52
135.0
 41
6.0
 77
     0
 78
     1
 53
135.0
 43
0.0
 44
0.0
 45
-1.0606601717798212
 46
-0.0000000000001643
 79
     2
 49
0.75
 49
-0.75
 98
        1
 10
0.0
 20
0.0
  0
LINE
  5
119
100
AcDbEntity
  8
TITLE BLOCK
370
     0
390
0
  6
Continuous
 62
     7
100
AcDbLine
 10
0.949219
 20
-8.025674
 30
0.0
 11
0.949219
 21
-8.025674
 31
0.0
  0
LINE
  5
11A
100
AcDbEntity
  8
TITLE BLOCK
370
     0
390
0
  6
Continuous
 62
     7
100
AcDbLine
 10
0.0
 20
-8.025674
 30
0.0
 11
0.949219
 21
-8.025674
 31
0.0
  0
LINE
  5
11B
100
AcDbEntity
  8
TITLE BLOCK
370
     0
390
0
  6
Continuous
 62
     7
100
AcDbLine
 10
8.054397
 20
0.028723
 30
0.0
 11
0.0
 21
-8.025674
 31
0.0
  0
LINE
  5
11C
100
AcDbEntity
  8
TITLE BLOCK
370
     0
390
0
  6
Continuous
 62
     7
100
AcDbLine
 10
0.0
 20
8.083119
 30
0.0
 11
8.054397
 21
0.028723
 31
0.0
  0
LINE
  5
11D
100
AcDbEntity
  8
TITLE BLOCK
370
     0
390
0
  6
Continuous
 62
     7
100
AcDbLine
 10
0.949219
 20
8.083119
 30
0.0
 11
0.0
 21
8.083119
 31
0.0
  0
LINE
  5
11E
100
AcDbEntity
  8
TITLE BLOCK
370
     0
390
0
  6
Continuous
 62
     7
100
AcDbLine
 10
9.003616
 20
0.028723
 30
0.0
 11
0.949219
 21
8.083119
 31
0.0
  0
LINE
  5
11F
100
AcDbEntity
  8
TITLE BLOCK
370
     0
390
0
  6
Continuous
 62
     7
100
AcDbLine
 10
0.949219
 20
-8.025674
 30
0.0
 11
9.003616
 21
0.028723
 31
0.0
  0
LINE
  5
120
100
AcDbEntity
  8
TITLE BLOCK
370
     0
390
0
  6
Continuous
 62
     7
100
AcDbLine
 10
8.054397
 20
0.028723
 30
0.0
 11
9.003616
 21
0.028723
 31
0.0
  0
LINE
  5
121
100
AcDbEntity
  8
TITLE BLOCK
370
     0
390
0
  6
Continuous
 62
    14
100
AcDbLine
 10
-8.054397
 20
0.028723
 30
0.0
 11
0.0
 21
8.083119
 31
0.0
  0
LINE
  5
122
100
AcDbEntity
  8
TITLE BLOCK
370
     0
390
0
  6
Continuous
 62
    14
100
AcDbLine
 10
0.0
 20
-8.025674
 30
0.0
 11
-8.054397
 21
0.028723
 31
0.0
  0
LINE
  5
123
100
AcDbEntity
  8
TITLE BLOCK
370
     0
390
0
  6
Continuous
 62
   174
100
AcDbLine
 10
0.0
 20
2.81887
 30
0.0
 11
0.088388
 21
2.907258
 31
0.0
  0
LINE
  5
124
100
AcDbEntity
  8
TITLE BLOCK
370
     0
390
0
  6
Continuous
 62
   174
100
AcDbLine
 10
0.0
 20
-3.231087
 30
0.0
 11
0.088388
 21
-3.142698
 31
0.0
  0
LINE
  5
125
100
AcDbEntity
  8
TITLE BLOCK
370
     0
390
0
  6
Continuous
 62
   174
100
AcDbLine
 10
0.0
 20
0.0
 30
0.0
 11
0.088388
 21
0.088388
 31
0.0
  0
LINE
  5
126
100
AcDbEntity
  8
TITLE BLOCK
370
     0
390
0
  6
Continuous
 62
   174
100
AcDbLine
 10
0.0
 20
2.81887
 30
0.0
 11
0.088388
 21
2.730482
 31
0.0
  0
LINE
  5
127
100
AcDbEntity
  8
TITLE BLOCK
370
     0
390
0
  6
Continuous
 62
   174
100
AcDbLine
 10
0.0
 20
-3.231087
 30
0.0
 11
0.088388
 21
-3.319475
 31
0.0
  0
LINE
  5
128
100
AcDbEntity
  8
TITLE BLOCK
370
     0
390
0
  6
Continuous
 62
   174
100
AcDbLine
 10
0.0
 20
0.0
 30
0.0
 11
0.088388
 21
-0.088388
 31
0.0
  0
LINE
  5
129
100
AcDbEntity
  8
TITLE BLOCK
370
     0
390
0
  6
Continuous
 62
   174
100
AcDbLine
 10
0.0
 20
2.81887
 30
0.0
 11
-0.088388
 21
2.730482
 31
0.0
  0
LINE
  5
12A
100
AcDbEntity
  8
TITLE BLOCK
370
     0
390
0
  6
Continuous
 62
   174
100
AcDbLine
 10
0.0
 20
-3.231087
 30
0.0
 11
-0.088388
 21
-3.319475
 31
0.0
  0
LINE
  5
12B
100
AcDbEntity
  8
TITLE BLOCK
370
     0
390
0
  6
Continuous
 62
   174
100
AcDbLine
 10
0.0
 20
0.0
 30
0.0
 11
-0.088388
 21
-0.088388
 31
0.0
  0
LINE
  5
12C
100
AcDbEntity
  8
TITLE BLOCK
370
     0
390
0
  6
Continuous
 62
   174
100
AcDbLine
 10
0.0
 20
2.81887
 30
0.0
 11
-0.088388
 21
2.907258
 31
0.0
  0
LINE
  5
12D
100
AcDbEntity
  8
TITLE BLOCK
370
     0
390
0
  6
Continuous
 62
   174
100
AcDbLine
 10
0.0
 20
-3.231087
 30
0.0
 11
-0.088388
 21
-3.142698
 31
0.0
  0
LINE
  5
12E
100
AcDbEntity
  8
TITLE BLOCK
370
     0
390
0
  6
Continuous
 62
   174
100
AcDbLine
 10
0.0
 20
0.0
 30
0.0
 11
-0.088388
 21
0.088388
 31
0.0
  0
ENDBLK
  5
12F
100
AcDbEntity
  8
0
390
0
100
AcDbBlockEnd
  0
BLOCK
  5
155
100
AcDbEntity
  8
0
390
0
100
AcDbBlockBegin
  2
centerline
 70
     0
 10
0.0
 20
0.0
 30
0.0
  3
centerline
  1

  0
HATCH
  5
156
100
AcDbEntity
  8
TITLE BLOCK
370
     0
390
0
  6
Continuous
 62
   134
100
AcDbHatch
 10
0.0
 20
0.0
 30
0.0
210
0.0
220
0.0
230
1.0
  2
DOTS
 70
     0
 71
     0
 91
        1
 92
        1
 93
        7
 72
     1
 10
3.867594295181334
 20
6.4058444127440453
 11
4.906555705703795
 21
7.0551950335502625
 72
     1
 10
4.6143475109711289
 20
8.4350652098655701
 11
4.5007112557068467
 21
8.4350652098655701
 72
     1
 10
4.5007112557068467
 20
8.4350652098655701
 11
4.0514704519882798
 21
7.7292797565460205
 72
     1
 10
4.0514704519882798
 20
7.7292797565460205
 11
3.4779837662354112
 21
7.1201301217079163
 72
     1
 10
3.4779837662354112
 20
7.1201301217079163
 11
2.8150835568085313
 21
6.6538248062133789
 72
     1
 10
2.8150835568085313
 20
6.6538248062133789
 11
2.0818796688690782
 21
6.3084418177604675
 72
     1
 10
4.3059053951874375
 20
13.61363685131073
 11
4.8740866715088487
 21
14.993507027626038
 97
        0
 75
     0
 76
     1
 52
0.0
 41
12.0
 77
     0
 78
     1
 53
0.0
 43
0.0
 44
0.0
 45
0.3744
 46
0.75
 79
     2
 49
0.0
 49
-0.75
 98
        1
 10
0.0
 20
0.0
  0
HATCH
  5
157
100
AcDbEntity
  8
TITLE BLOCK
370
     0
390
0
  6
Continuous
 62
    14
100
AcDbHatch
 10
0.0
 20
0.0
 30
0.0
210
0.0
220
0.0
230
1.0
  2
DOTS
 70
     0
 71
     0
 91
        1
 92
        1
 93
       26
 72
     1
 10
-2.0041587855666876
 20
10.766233921051025
 11
-1.4684445317834616
 21
10.392857313156128
 72
     1
 10
-1.338574355468154
 20
9.8733766078948975
 11
-1.338574355468154
 21
8.0551947355270386
 72
     1
 10
-1.338574355468154
 20
8.0551947355270386
 11
-1.338574355468154
 21
6.2207789421081543
 72
     1
 10
-1.338574355468154
 20
6.2207789421081543
 11
-1.338574355468154
 21
4.4025970697402954
 72
     1
 10
-1.338574355468154
 20
4.4025970697402954
 11
-1.338574355468154
 21
2.5681814253330231
 72
     1
 10
-2.5236392859369516
 20
0.7824671412818134
 11
-0.6080549117177725
 21
0.7824671412818134
 72
     1
 10
-0.6080549117177725
 20
0.7824671412818134
 11
1.3237633649259806
 21
0.7824671412818134
 72
     1
 10
1.3237633649259806
 20
0.7824671412818134
 11
3.2393475715070963
 21
0.7824671412818134
 72
     1
 10
3.2393475715070963
 20
0.7824671412818134
 11
5.1711656991392374
 21
0.7824671412818134
 72
     1
 10
5.1711656991392374
 20
0.7824671412818134
 11
7.0867499057203531
 21
0.7824671412818134
 72
     1
 10
7.0867499057203531
 20
0.7824671412818134
 11
7.4114253465086222
 21
1.8376619815826416
 72
     1
 10
7.4114253465086222
 20
1.8376619815826416
 11
7.7361001912504435
 21
2.9090904891490936
 72
     1
 10
7.7361001912504435
 20
2.9090904891490936
 11
7.5899960938841105
 21
2.9090904891490936
 72
     1
 10
7.5899960938841105
 20
2.9090904891490936
 11
7.1192171517759562
 21
2.4383112490177155
 72
     1
 10
3.9049311820417643
 20
1.2857138440012932
 11
2.5575288478285074
 21
1.2857138440012932
 72
     1
 10
2.5575288478285074
 20
1.2857138440012932
 11
1.2101262155920267
 21
1.2857138440012932
 72
     1
 10
0.0250613037496805
 20
2.7142852246761322
 11
0.0250613037496805
 21
4.3051944375038147
 72
     1
 10
0.0250613037496805
 20
4.3051944375038147
 11
0.0250613037496805
 21
5.9123374223709106
 72
     1
 10
0.0250613037496805
 20
5.9123374223709106
 11
0.0250613037496805
 21
7.5032467842102051
 72
     1
 10
0.0250613037496805
 20
7.5032467842102051
 11
0.0250613037496805
 21
9.1103894710540771
 72
     1
 10
0.0250613037496805
 20
9.1103894710540771
 11
0.0899963919073343
 21
9.8733766078948975
 72
     1
 10
0.4309054557234049
 20
10.555194735527039
 11
0.93415223993361
 21
10.766233921051025
 72
     1
 10
0.93415223993361
 20
10.766233921051025
 11
0.93415223993361
 21
10.896104097366333
 72
     1
 10
0.93415223993361
 20
10.896104097366333
 11
-0.5755879636853933
 21
10.896104097366333
 72
     1
 10
-0.5755879636853933
 20
10.896104097366333
 11
-2.0853282045572996
 21
10.896104097366333
 72
     1
 10
-2.0853282045572996
 20
10.896104097366333
 11
-2.0041587855666876
 21
10.766233921051025
 97
        0
 75
     0
 76
     1
 52
0.0
 41
12.0
 77
     0
 78
     1
 53
0.0
 43
0.0
 44
0.0
 45
0.3744
 46
0.75
 79
     2
 49
0.0
 49
-0.75
 98
        1
 10
0.0
 20
0.0
  0
ARC
  5
158
100
AcDbEntity
  8
TITLE BLOCK
370
     0
390
0
  6
Continuous
 62
   174
100
AcDbCircle
 10
0.38129
 20
11.161513
 30
0.0
 40
5.537903
100
AcDbArc
 50
195.46251
 51
209.880178
  0
ARC
  5
159
100
AcDbEntity
  8
TITLE BLOCK
370
     0
390
0
  6
Continuous
 62
   174
100
AcDbCircle
 10
0.280833
 20
11.06466
 30
0.0
 40
5.415669
100
AcDbArc
 50
180.340583
 51
194.75826
  0
ARC
  5
15A
100
AcDbEntity
  8
TITLE BLOCK
370
     0
390
0
  6
Continuous
 62
   174
100
AcDbCircle
 10
0.745656
 20
10.939622
 30
0.0
 40
5.881129
100
AcDbArc
 50
166.476044
 51
179.095429
  0
ARC
  5
15B
100
AcDbEntity
  8
TITLE BLOCK
370
     0
390
0
  6
Continuous
 62
   174
100
AcDbCircle
 10
3.282975
 20
10.066169
 30
0.0
 40
8.556179
100
AcDbArc
 50
155.744006
 51
164.762326
  0
HATCH
  5
15C
100
AcDbEntity
  8
TITLE BLOCK
370
     0
390
0
  6
Continuous
 62
    14
100
AcDbHatch
 10
0.0
 20
0.0
 30
0.0
210
0.0
220
0.0
230
1.0
  2
DOTS
 70
     0
 71
     0
 91
        1
 92
        1
 93
       26
 72
     1
 10
-1.4285708218812943
 20
10.766233921051025
 11
-0.8928565680980682
 21
10.392857313156128
 72
     1
 10
-0.7629863917827606
 20
9.8733766078948975
 11
-0.7629863917827606
 21
8.0551947355270386
 72
     1
 10
-0.7629863917827606
 20
8.0551947355270386
 11
-0.7629863917827606
 21
6.2207789421081543
 72
     1
 10
-0.7629863917827606
 20
6.2207789421081543
 11
-0.7629863917827606
 21
4.4025970697402954
 72
     1
 10
-0.7629863917827606
 20
4.4025970697402954
 11
-0.7629863917827606
 21
2.5681814253330231
 72
     1
 10
-1.9480513222515583
 20
0.7824671412818134
 11
-0.0324669480323792
 21
0.7824671412818134
 72
     1
 10
-0.0324669480323792
 20
0.7824671412818134
 11
1.8993513286113739
 21
0.7824671412818134
 72
     1
 10
1.8993513286113739
 20
0.7824671412818134
 11
3.8149355351924896
 21
0.7824671412818134
 72
     1
 10
3.8149355351924896
 20
0.7824671412818134
 11
5.7467536628246307
 21
0.7824671412818134
 72
     1
 10
5.7467536628246307
 20
0.7824671412818134
 11
7.6623378694057465
 21
0.7824671412818134
 72
     1
 10
7.6623378694057465
 20
0.7824671412818134
 11
7.9870133101940155
 21
1.8376619815826416
 72
     1
 10
7.9870133101940155
 20
1.8376619815826416
 11
8.3116881549358368
 21
2.9090904891490936
 72
     1
 10
8.3116881549358368
 20
2.9090904891490936
 11
8.1655840575695038
 21
2.9090904891490936
 72
     1
 10
8.1655840575695038
 20
2.9090904891490936
 11
7.6948051154613495
 21
2.4383112490177155
 72
     1
 10
4.4805191457271576
 20
1.2857138440012932
 11
3.1331168115139008
 21
1.2857138440012932
 72
     1
 10
3.1331168115139008
 20
1.2857138440012932
 11
1.78571417927742
 21
1.2857138440012932
 72
     1
 10
0.6006492674350739
 20
2.7142852246761322
 11
0.6006492674350739
 21
4.3051944375038147
 72
     1
 10
0.6006492674350739
 20
4.3051944375038147
 11
0.6006492674350739
 21
5.9123374223709106
 72
     1
 10
0.6006492674350739
 20
5.9123374223709106
 11
0.6006492674350739
 21
7.5032467842102051
 72
     1
 10
0.6006492674350739
 20
7.5032467842102051
 11
0.6006492674350739
 21
9.1103894710540771
 72
     1
 10
0.6006492674350739
 20
9.1103894710540771
 11
0.6655843555927277
 21
9.8733766078948975
 72
     1
 10
1.0064934194087982
 20
10.555194735527039
 11
1.5097402036190033
 21
10.766233921051025
 72
     1
 10
1.5097402036190033
 20
10.766233921051025
 11
1.5097402036190033
 21
10.896104097366333
 72
     1
 10
1.5097402036190033
 20
10.896104097366333
 11
0.0
 21
10.896104097366333
 72
     1
 10
0.0
 20
10.896104097366333
 11
-1.5097402408719063
 21
10.896104097366333
 72
     1
 10
-1.5097402408719063
 20
10.896104097366333
 11
-1.4285708218812943
 21
10.766233921051025
 97
        0
 75
     0
 76
     1
 52
0.0
 41
96.0
 77
     0
 78
     1
 53
0.0
 43
0.0
 44
0.0
 45
2.9951999999999996
 46
6.0
 79
     2
 49
0.0
 49
-6.0
 98
        1
 10
0.0
 20
0.0
  0
ARC
  5
15D
100
AcDbEntity
  8
TITLE BLOCK
370
     0
390
0
  6
Continuous
 62
   174
100
AcDbCircle
 10
0.843702
 20
9.340589
 30
0.0
 40
7.135678
100
AcDbArc
 50
94.471854
 51
110.685984
  0
ARC
  5
15E
100
AcDbEntity
  8
TITLE BLOCK
370
     0
390
0
  6
Continuous
 62
   174
100
AcDbCircle
 10
0.644067
 20
10.450054
 30
0.0
 40
6.03071
100
AcDbArc
 50
112.635414
 51
130.644145
  0
ARC
  5
15F
100
AcDbEntity
  8
TITLE BLOCK
370
     0
390
0
  6
Continuous
 62
   174
100
AcDbCircle
 10
1.170375
 20
9.972982
 30
0.0
 40
6.736097
100
AcDbArc
 50
131.397791
 51
147.612026
  0
ARC
  5
160
100
AcDbEntity
  8
TITLE BLOCK
370
     0
390
0
  6
Continuous
 62
   174
100
AcDbCircle
 10
0.604765
 20
11.934311
 30
0.0
 40
6.142136
100
AcDbArc
 50
215.099461
 51
234.900536
  0
ARC
  5
161
100
AcDbEntity
  8
TITLE BLOCK
370
     0
390
0
  6
Continuous
 62
   174
100
AcDbCircle
 10
0.661959
 20
12.326404
 30
0.0
 40
6.498272
100
AcDbArc
 50
236.475993
 51
254.484723
  0
ARC
  5
162
100
AcDbEntity
  8
TITLE BLOCK
370
     0
390
0
  6
Continuous
 62
   174
100
AcDbCircle
 10
1.045472
 20
14.076811
 30
0.0
 40
8.288067
100
AcDbArc
 50
255.16697
 51
269.584645
  0
ARC
  5
163
100
AcDbEntity
  8
TITLE BLOCK
370
     0
390
0
  6
Continuous
 62
   174
100
AcDbCircle
 10
0.840883
 20
17.088924
 30
0.0
 40
11.300887
100
AcDbArc
 50
270.732673
 51
279.750966
  0
ARC
  5
164
100
AcDbEntity
  8
TITLE BLOCK
370
     0
390
0
  6
Continuous
 62
   174
100
AcDbCircle
 10
0.717146
 20
16.882699
 30
0.0
 40
11.119705
100
AcDbArc
 50
280.559324
 51
289.577652
  0
LINE
  5
165
100
AcDbEntity
  8
TITLE BLOCK
370
     0
390
0
  6
Continuous
 62
   174
100
AcDbLine
 10
4.443182
 20
6.405844
 30
0.0
 11
5.482144
 21
7.055195
 31
0.0
  0
ARC
  5
166
100
AcDbEntity
  8
TITLE BLOCK
370
     0
390
0
  6
Continuous
 62
   174
100
AcDbCircle
 10
-3.412482
 20
5.892499
 30
0.0
 40
8.970297
100
AcDbArc
 50
7.447413
 51
16.465787
  0
ARC
  5
167
100
AcDbEntity
  8
TITLE BLOCK
370
     0
390
0
  6
Continuous
 62
   174
100
AcDbCircle
 10
1.079543
 20
10.68145
 30
0.0
 40
4.648984
100
AcDbArc
 50
270.040042
 51
289.841102
  0
ARC
  5
168
100
AcDbEntity
  8
TITLE BLOCK
370
     0
390
0
  6
Continuous
 62
   174
100
AcDbCircle
 10
1.090003
 20
10.62191
 30
0.0
 40
4.589448
100
AcDbArc
 50
248.318962
 51
269.909983
  0
ARC
  5
169
100
AcDbEntity
  8
TITLE BLOCK
370
     0
390
0
  6
Continuous
 62
   174
100
AcDbCircle
 10
1.236279
 20
10.811129
 30
0.0
 40
4.819773
100
AcDbArc
 50
225.943067
 51
247.534076
  0
ARC
  5
16A
100
AcDbEntity
  8
TITLE BLOCK
370
     0
390
0
  6
Continuous
 62
   174
100
AcDbCircle
 10
1.920066
 20
10.94028
 30
0.0
 40
5.40302
100
AcDbArc
 50
200.089433
 51
221.680465
  0
ARC
  5
16B
100
AcDbEntity
  8
TITLE BLOCK
370
     0
390
0
  6
Continuous
 62
   174
100
AcDbCircle
 10
2.480346
 20
11.122138
 30
0.0
 40
5.991716
100
AcDbArc
 50
180.081297
 51
199.882358
  0
ARC
  5
16C
100
AcDbEntity
  8
TITLE BLOCK
370
     0
390
0
  6
Continuous
 62
   174
100
AcDbCircle
 10
2.650432
 20
11.119303
 30
0.0
 40
6.161799
100
AcDbArc
 50
163.838482
 51
180.05269
  0
ARC
  5
16D
100
AcDbEntity
  8
TITLE BLOCK
370
     0
390
0
  6
Continuous
 62
   174
100
AcDbCircle
 10
2.074123
 20
11.265508
 30
0.0
 40
5.567605
100
AcDbArc
 50
145.62407
 51
163.632803
  0
ARC
  5
16E
100
AcDbEntity
  8
TITLE BLOCK
370
     0
390
0
  6
Continuous
 62
   174
100
AcDbCircle
 10
1.237725
 20
11.81711
 30
0.0
 40
4.56587
100
AcDbArc
 50
123.819988
 51
145.410959
  0
ARC
  5
16F
100
AcDbEntity
  8
TITLE BLOCK
370
     0
390
0
  6
Continuous
 62
   174
100
AcDbCircle
 10
0.900603
 20
11.586106
 30
0.0
 40
4.588382
100
AcDbArc
 50
104.292524
 51
118.710328
  0
ARC
  5
170
100
AcDbEntity
  8
TITLE BLOCK
370
     0
390
0
  6
Continuous
 62
   174
100
AcDbCircle
 10
0.988618
 20
11.040188
 30
0.0
 40
5.139369
100
AcDbArc
 50
91.121952
 51
103.740884
  0
ARC
  5
171
100
AcDbEntity
  8
TITLE BLOCK
370
     0
390
0
  6
Continuous
 62
   174
100
AcDbCircle
 10
0.886928
 20
11.242406
 30
0.0
 40
4.936166
100
AcDbArc
 50
70.186799
 51
89.987709
  0
ARC
  5
172
100
AcDbEntity
  8
TITLE BLOCK
370
     0
390
0
  6
Continuous
 62
   174
100
AcDbCircle
 10
0.97566
 20
11.702038
 30
0.0
 40
4.474251
100
AcDbArc
 50
47.669704
 51
69.260709
  0
ARC
  5
173
100
AcDbEntity
  8
TITLE BLOCK
370
     0
390
0
  6
Continuous
 62
   174
100
AcDbCircle
 10
1.708644
 20
12.568048
 30
0.0
 40
3.340693
100
AcDbArc
 50
18.239254
 51
46.961415
  0
LINE
  5
174
100
AcDbEntity
  8
TITLE BLOCK
370
     0
390
0
  6
Continuous
 62
   174
100
AcDbLine
 10
4.881493
 20
13.613637
 30
0.0
 11
5.449675
 21
14.993507
 31
0.0
  0
ARC
  5
175
100
AcDbEntity
  8
TITLE BLOCK
370
     0
390
0
  6
Continuous
 62
   174
100
AcDbCircle
 10
3.876469
 20
13.931982
 30
0.0
 40
1.897844
100
AcDbArc
 50
34.009632
 51
59.172621
  0
ARC
  5
176
100
AcDbEntity
  8
TITLE BLOCK
370
     0
390
0
  6
Continuous
 62
   174
100
AcDbCircle
 10
4.277212
 20
14.384381
 30
0.0
 40
1.308826
100
AcDbArc
 50
64.094341
 51
69.50855
  0
ARC
  5
177
100
AcDbEntity
  8
TITLE BLOCK
370
     0
390
0
  6
Continuous
 62
   174
100
AcDbCircle
 10
-0.21207
 20
4.090734
 30
0.0
 40
12.537138
100
AcDbArc
 50
66.757457
 51
75.775847
  0
ARC
  5
178
100
AcDbEntity
  8
TITLE BLOCK
370
     0
390
0
  6
Continuous
 62
   174
100
AcDbCircle
 10
0.809598
 20
7.703144
 30
0.0
 40
8.785038
100
AcDbArc
 50
76.445786
 51
89.065202
  0
ARC
  5
179
100
AcDbEntity
  8
TITLE BLOCK
370
     0
390
0
  6
Continuous
 62
   174
100
AcDbCircle
 10
1.048182
 20
11.32698
 30
0.0
 40
5.160912
100
AcDbArc
 50
91.057629
 51
94.667234
  0
ARC
  5
17A
100
AcDbEntity
  8
TITLE BLOCK
370
     0
390
0
  6
Continuous
 62
   174
100
AcDbCircle
 10
0.200165
 20
21.872772
 30
0.0
 40
5.418929
100
AcDbArc
 50
270.921731
 51
274.530938
  0
LINE
  5
17B
100
AcDbEntity
  8
TITLE BLOCK
370
     0
390
0
  6
Continuous
 62
   174
100
AcDbLine
 10
-1.428571
 20
10.766234
 30
0.0
 11
-0.892857
 21
10.392857
 31
0.0
  0
ARC
  5
17C
100
AcDbEntity
  8
TITLE BLOCK
370
     0
390
0
  6
Continuous
 62
   174
100
AcDbCircle
 10
-2.095411
 20
9.883781
 30
0.0
 40
1.30587
100
AcDbArc
 50
13.925531
 51
22.944367
  0
ARC
  5
17D
100
AcDbEntity
  8
TITLE BLOCK
370
     0
390
0
  6
Continuous
 62
   174
100
AcDbCircle
 10
-5.94835
 20
9.005135
 30
0.0
 40
5.257551
100
AcDbArc
 50
9.505473
 51
13.114392
  0
ARC
  5
17E
100
AcDbEntity
  8
TITLE BLOCK
370
     0
390
0
  6
Continuous
 62
   174
100
AcDbCircle
 10
-2.632322
 20
2.522657
 30
0.0
 40
1.86989
100
AcDbArc
 50
291.465545
 51
361.395058
  0
LINE
  5
17F
100
AcDbEntity
  8
TITLE BLOCK
370
     0
390
0
  6
Continuous
 62
   174
100
AcDbLine
 10
8.165584
 20
2.90909
 30
0.0
 11
7.694805
 21
2.438311
 31
0.0
  0
ARC
  5
180
100
AcDbEntity
  8
TITLE BLOCK
370
     0
390
0
  6
Continuous
 62
   174
100
AcDbCircle
 10
4.811514
 20
5.99133
 30
0.0
 40
4.57573
100
AcDbArc
 50
287.468516
 51
309.059489
  0
ARC
  5
181
100
AcDbEntity
  8
TITLE BLOCK
370
     0
390
0
  6
Continuous
 62
   174
100
AcDbCircle
 10
3.532845
 20
10.455901
 30
0.0
 40
9.219025
100
AcDbArc
 50
275.900167
 51
286.719697
  0
ARC
  5
182
100
AcDbEntity
  8
TITLE BLOCK
370
     0
390
0
  6
Continuous
 62
   174
100
AcDbCircle
 10
2.635822
 20
6.250418
 30
0.0
 40
5.03696
100
AcDbArc
 50
253.067476
 51
260.283456
  0
ARC
  5
183
100
AcDbEntity
  8
TITLE BLOCK
370
     0
390
0
  6
Continuous
 62
   174
100
AcDbCircle
 10
3.237016
 20
3.115199
 30
0.0
 40
2.666676
100
AcDbArc
 50
188.646759
 51
219.14357
  0
ARC
  5
184
100
AcDbEntity
  8
TITLE BLOCK
370
     0
390
0
  6
Continuous
 62
   174
100
AcDbCircle
 10
3.531296
 20
8.866657
 30
0.0
 40
3.037398
100
AcDbArc
 50
146.226183
 51
160.643714
  0
LINE
  5
185
100
AcDbEntity
  8
TITLE BLOCK
370
     0
390
0
  6
Continuous
 62
   174
100
AcDbLine
 10
1.006493
 20
10.555195
 30
0.0
 11
1.50974
 21
10.766234
 31
0.0
  0
LINE
  5
186
100
AcDbEntity
  8
TITLE BLOCK
370
     0
390
0
  6
Continuous
 62
   174
100
AcDbLine
 10
-0.762986
 20
9.873377
 30
0.0
 11
-0.762986
 21
8.055195
 31
0.0
  0
LINE
  5
187
100
AcDbEntity
  8
TITLE BLOCK
370
     0
390
0
  6
Continuous
 62
   174
100
AcDbLine
 10
-0.762986
 20
8.055195
 30
0.0
 11
-0.762986
 21
6.220779
 31
0.0
  0
LINE
  5
188
100
AcDbEntity
  8
TITLE BLOCK
370
     0
390
0
  6
Continuous
 62
   174
100
AcDbLine
 10
-0.762986
 20
6.220779
 30
0.0
 11
-0.762986
 21
4.402597
 31
0.0
  0
LINE
  5
189
100
AcDbEntity
  8
TITLE BLOCK
370
     0
390
0
  6
Continuous
 62
   174
100
AcDbLine
 10
-0.762986
 20
4.402597
 30
0.0
 11
-0.762986
 21
2.568181
 31
0.0
  0
LINE
  5
18A
100
AcDbEntity
  8
TITLE BLOCK
370
     0
390
0
  6
Continuous
 62
   174
100
AcDbLine
 10
-1.948051
 20
0.782467
 30
0.0
 11
-0.032467
 21
0.782467
 31
0.0
  0
LINE
  5
18B
100
AcDbEntity
  8
TITLE BLOCK
370
     0
390
0
  6
Continuous
 62
   174
100
AcDbLine
 10
-0.032467
 20
0.782467
 30
0.0
 11
1.899351
 21
0.782467
 31
0.0
  0
LINE
  5
18C
100
AcDbEntity
  8
TITLE BLOCK
370
     0
390
0
  6
Continuous
 62
   174
100
AcDbLine
 10
1.899351
 20
0.782467
 30
0.0
 11
3.814936
 21
0.782467
 31
0.0
  0
LINE
  5
18D
100
AcDbEntity
  8
TITLE BLOCK
370
     0
390
0
  6
Continuous
 62
   174
100
AcDbLine
 10
3.814936
 20
0.782467
 30
0.0
 11
5.746754
 21
0.782467
 31
0.0
  0
LINE
  5
18E
100
AcDbEntity
  8
TITLE BLOCK
370
     0
390
0
  6
Continuous
 62
   174
100
AcDbLine
 10
5.746754
 20
0.782467
 30
0.0
 11
7.662338
 21
0.782467
 31
0.0
  0
LINE
  5
18F
100
AcDbEntity
  8
TITLE BLOCK
370
     0
390
0
  6
Continuous
 62
   174
100
AcDbLine
 10
7.662338
 20
0.782467
 30
0.0
 11
7.987013
 21
1.837662
 31
0.0
  0
LINE
  5
190
100
AcDbEntity
  8
TITLE BLOCK
370
     0
390
0
  6
Continuous
 62
   174
100
AcDbLine
 10
7.987013
 20
1.837662
 30
0.0
 11
8.311688
 21
2.90909
 31
0.0
  0
LINE
  5
191
100
AcDbEntity
  8
TITLE BLOCK
370
     0
390
0
  6
Continuous
 62
   174
100
AcDbLine
 10
8.311688
 20
2.90909
 30
0.0
 11
8.165584
 21
2.90909
 31
0.0
  0
LINE
  5
192
100
AcDbEntity
  8
TITLE BLOCK
370
     0
390
0
  6
Continuous
 62
   174
100
AcDbLine
 10
4.480519
 20
1.285714
 30
0.0
 11
3.133117
 21
1.285714
 31
0.0
  0
LINE
  5
193
100
AcDbEntity
  8
TITLE BLOCK
370
     0
390
0
  6
Continuous
 62
   174
100
AcDbLine
 10
3.133117
 20
1.285714
 30
0.0
 11
1.785714
 21
1.285714
 31
0.0
  0
LINE
  5
194
100
AcDbEntity
  8
TITLE BLOCK
370
     0
390
0
  6
Continuous
 62
   174
100
AcDbLine
 10
0.600649
 20
2.714285
 30
0.0
 11
0.600649
 21
4.305194
 31
0.0
  0
LINE
  5
195
100
AcDbEntity
  8
TITLE BLOCK
370
     0
390
0
  6
Continuous
 62
   174
100
AcDbLine
 10
0.600649
 20
4.305194
 30
0.0
 11
0.600649
 21
5.912337
 31
0.0
  0
LINE
  5
196
100
AcDbEntity
  8
TITLE BLOCK
370
     0
390
0
  6
Continuous
 62
   174
100
AcDbLine
 10
0.600649
 20
5.912337
 30
0.0
 11
0.600649
 21
7.503247
 31
0.0
  0
LINE
  5
197
100
AcDbEntity
  8
TITLE BLOCK
370
     0
390
0
  6
Continuous
 62
   174
100
AcDbLine
 10
0.600649
 20
7.503247
 30
0.0
 11
0.600649
 21
9.110389
 31
0.0
  0
LINE
  5
198
100
AcDbEntity
  8
TITLE BLOCK
370
     0
390
0
  6
Continuous
 62
   174
100
AcDbLine
 10
0.600649
 20
9.110389
 30
0.0
 11
0.665584
 21
9.873377
 31
0.0
  0
LINE
  5
199
100
AcDbEntity
  8
TITLE BLOCK
370
     0
390
0
  6
Continuous
 62
   174
100
AcDbLine
 10
1.50974
 20
10.766234
 30
0.0
 11
1.50974
 21
10.896104
 31
0.0
  0
LINE
  5
19A
100
AcDbEntity
  8
TITLE BLOCK
370
     0
390
0
  6
Continuous
 62
   174
100
AcDbLine
 10
1.50974
 20
10.896104
 30
0.0
 11
0.0
 21
10.896104
 31
0.0
  0
LINE
  5
19B
100
AcDbEntity
  8
TITLE BLOCK
370
     0
390
0
  6
Continuous
 62
   174
100
AcDbLine
 10
0.0
 20
10.896104
 30
0.0
 11
-1.50974
 21
10.896104
 31
0.0
  0
POLYLINE
  5
19C
100
AcDbEntity
  8
TITLE BLOCK
370
     0
390
0
  6
Continuous
 62
   134
100
AcDb2dPolyline
 66
     1
 10
0.0
 20
0.0
 30
0.0
 70
   128
  0
VERTEX
  5
19D
100
AcDbEntity
  8
TITLE BLOCK
370
     0
390
0
  6
Continuous
 62
   134
100
AcDbVertex
100
AcDb2dVertex
 10
2.657468
 20
6.308442
 30
0.0
  0
VERTEX
  5
19E
100
AcDbEntity
  8
TITLE BLOCK
370
     0
390
0
  6
Continuous
 62
   134
100
AcDbVertex
100
AcDb2dVertex
 10
3.390672
 20
6.653825
 30
0.0
  0
VERTEX
  5
19F
100
AcDbEntity
  8
TITLE BLOCK
370
     0
390
0
  6
Continuous
 62
   134
100
AcDbVertex
100
AcDb2dVertex
 10
4.053572
 20
7.12013
 30
0.0
  0
VERTEX
  5
1A0
100
AcDbEntity
  8
TITLE BLOCK
370
     0
390
0
  6
Continuous
 62
   134
100
AcDbVertex
100
AcDb2dVertex
 10
4.627058
 20
7.72928
 30
0.0
  0
VERTEX
  5
1A1
100
AcDbEntity
  8
TITLE BLOCK
370
     0
390
0
  6
Continuous
 62
   134
100
AcDbVertex
100
AcDb2dVertex
 10
5.076299
 20
8.435065
 30
0.0
  0
VERTEX
  5
1A2
100
AcDbEntity
  8
TITLE BLOCK
370
     0
390
0
  6
Continuous
 62
   134
100
AcDbVertex
100
AcDb2dVertex
 10
5.189935
 20
8.435065
 30
0.0
  0
SEQEND
  5
1A3
100
AcDbEntity
  8
TITLE BLOCK
370
     0
390
0
  6
Continuous
 62
   134
  0
LINE
  5
1A4
100
AcDbEntity
  8
TITLE BLOCK
370
     0
390
0
  6
Continuous
 62
   134
100
AcDbLine
 10
-1.50974
 20
10.896104
 30
0.0
 11
-1.428571
 21
10.766234
 31
0.0
  0
HATCH
  5
1A5
100
AcDbEntity
  8
TITLE BLOCK
370
     0
390
0
  6
Continuous
 62
     1
100
AcDbHatch
 10
0.0
 20
0.0
 30
0.0
210
0.0
220
0.0
230
1.0
  2
DOTS
 70
     0
 71
     0
 91
        1
 92
        1
 93
        7
 72
     1
 10
4.4431822588667274
 20
6.4058444127440453
 11
5.4821436693891883
 21
7.0551950335502625
 72
     1
 10
5.1899354746565223
 20
8.4350652098655701
 11
5.07629921939224
 21
8.4350652098655701
 72
     1
 10
5.07629921939224
 20
8.4350652098655701
 11
4.6270584156736732
 21
7.7292797565460205
 72
     1
 10
4.6270584156736732
 20
7.7292797565460205
 11
4.0535717299208045
 21
7.1201301217079163
 72
     1
 10
4.0535717299208045
 20
7.1201301217079163
 11
3.3906715204939246
 21
6.6538248062133789
 72
     1
 10
3.3906715204939246
 20
6.6538248062133789
 11
2.6574676325544715
 21
6.3084418177604675
 72
     1
 10
4.8814933588728309
 20
13.61363685131073
 11
5.449674635194242
 21
14.993507027626038
 97
        0
 75
     0
 76
     1
 52
0.0
 41
4.0
 77
     0
 78
     1
 53
0.0
 43
0.0
 44
0.0
 45
0.1248
 46
0.25
 79
     2
 49
0.0
 49
-0.25
 98
        1
 10
0.0
 20
0.0
  0
HATCH
  5
1A6
100
AcDbEntity
  8
TITLE BLOCK
370
     0
390
0
  6
Continuous
 62
     1
100
AcDbHatch
 10
0.0
 20
0.0
 30
0.0
210
0.0
220
0.0
230
1.0
  2
DOTS
 70
     0
 71
     0
 91
        1
 92
        1
 93
       26
 72
     1
 10
-1.4285708218812943
 20
10.766233921051025
 11
-0.8928565680980682
 21
10.392857313156128
 72
     1
 10
-0.7629863917827606
 20
9.8733766078948975
 11
-0.7629863917827606
 21
8.0551947355270386
 72
     1
 10
-0.7629863917827606
 20
8.0551947355270386
 11
-0.7629863917827606
 21
6.2207789421081543
 72
     1
 10
-0.7629863917827606
 20
6.2207789421081543
 11
-0.7629863917827606
 21
4.4025970697402954
 72
     1
 10
-0.7629863917827606
 20
4.4025970697402954
 11
-0.7629863917827606
 21
2.5681814253330231
 72
     1
 10
-1.9480513222515583
 20
0.7824671412818134
 11
-0.0324669480323792
 21
0.7824671412818134
 72
     1
 10
-0.0324669480323792
 20
0.7824671412818134
 11
1.8993513286113739
 21
0.7824671412818134
 72
     1
 10
1.8993513286113739
 20
0.7824671412818134
 11
3.8149355351924896
 21
0.7824671412818134
 72
     1
 10
3.8149355351924896
 20
0.7824671412818134
 11
5.7467536628246307
 21
0.7824671412818134
 72
     1
 10
5.7467536628246307
 20
0.7824671412818134
 11
7.6623378694057465
 21
0.7824671412818134
 72
     1
 10
7.6623378694057465
 20
0.7824671412818134
 11
7.9870133101940155
 21
1.8376619815826416
 72
     1
 10
7.9870133101940155
 20
1.8376619815826416
 11
8.3116881549358368
 21
2.9090904891490936
 72
     1
 10
8.3116881549358368
 20
2.9090904891490936
 11
8.1655840575695038
 21
2.9090904891490936
 72
     1
 10
8.1655840575695038
 20
2.9090904891490936
 11
7.6948051154613495
 21
2.4383112490177155
 72
     1
 10
4.4805191457271576
 20
1.2857138440012932
 11
3.1331168115139008
 21
1.2857138440012932
 72
     1
 10
3.1331168115139008
 20
1.2857138440012932
 11
1.78571417927742
 21
1.2857138440012932
 72
     1
 10
0.6006492674350739
 20
2.7142852246761322
 11
0.6006492674350739
 21
4.3051944375038147
 72
     1
 10
0.6006492674350739
 20
4.3051944375038147
 11
0.6006492674350739
 21
5.9123374223709106
 72
     1
 10
0.6006492674350739
 20
5.9123374223709106
 11
0.6006492674350739
 21
7.5032467842102051
 72
     1
 10
0.6006492674350739
 20
7.5032467842102051
 11
0.6006492674350739
 21
9.1103894710540771
 72
     1
 10
0.6006492674350739
 20
9.1103894710540771
 11
0.6655843555927277
 21
9.8733766078948975
 72
     1
 10
1.0064934194087982
 20
10.555194735527039
 11
1.5097402036190033
 21
10.766233921051025
 72
     1
 10
1.5097402036190033
 20
10.766233921051025
 11
1.5097402036190033
 21
10.896104097366333
 72
     1
 10
1.5097402036190033
 20
10.896104097366333
 11
0.0
 21
10.896104097366333
 72
     1
 10
0.0
 20
10.896104097366333
 11
-1.5097402408719063
 21
10.896104097366333
 72
     1
 10
-1.5097402408719063
 20
10.896104097366333
 11
-1.4285708218812943
 21
10.766233921051025
 97
        0
 75
     0
 76
     1
 52
0.0
 41
4.0
 77
     0
 78
     1
 53
0.0
 43
0.0
 44
0.0
 45
0.1248
 46
0.25
 79
     2
 49
0.0
 49
-0.25
 98
        1
 10
0.0
 20
0.0
  0
ENDBLK
  5
1A7
100
AcDbEntity
  8
0
390
0
100
AcDbBlockEnd
  0
BLOCK
  5
218
100
AcDbEntity
  8
0
390
0
100
AcDbBlockBegin
  2
DRAPE
 70
     0
 10
0.0
 20
0.0
 30
0.0
  3
DRAPE
  1

  0
ARC
  5
219
100
AcDbEntity
  8
0
370
     0
390
0
  6
Continuous
 62
   134
100
AcDbCircle
 10
0.0
 20
1.0
 30
0.0
 40
1.0
100
AcDbArc
 50
270.0
 51
450.0
  0
ARC
  5
21A
100
AcDbEntity
  8
0
370
     0
390
0
  6
Continuous
 62
   134
100
AcDbCircle
 10
0.0
 20
-1.0
 30
0.0
 40
1.0
100
AcDbArc
 50
90.0
 51
270.0
  0
ARC
  5
21B
100
AcDbEntity
  8
0
370
     0
390
0
  6
Continuous
 62
   134
100
AcDbCircle
 10
0.0
 20
-3.0
 30
0.0
 40
1.0
100
AcDbArc
 50
270.0
 51
450.0
  0
ARC
  5
21C
100
AcDbEntity
  8
0
370
     0
390
0
  6
Continuous
 62
   134
100
AcDbCircle
 10
0.0
 20
3.0
 30
0.0
 40
1.0
100
AcDbArc
 50
90.0
 51
270.0
  0
ARC
  5
21D
100
AcDbEntity
  8
0
370
     0
390
0
  6
Continuous
 62
   134
100
AcDbCircle
 10
0.0
 20
-5.0
 30
0.0
 40
1.0
100
AcDbArc
 50
90.0
 51
270.0
  0
ARC
  5
21E
100
AcDbEntity
  8
0
370
     0
390
0
  6
Continuous
 62
   134
100
AcDbCircle
 10
0.0
 20
5.0
 30
0.0
 40
1.0
100
AcDbArc
 50
270.0
 51
450.0
  0
ENDBLK
  5
21F
100
AcDbEntity
  8
0
390
0
100
AcDbBlockEnd
  0
ENDSEC
  0
SECTION
  2
ENTITIES
  0
VIEWPORT
  5
3F
100
AcDbEntity
 67
     1
  8
0
390
0
  6
Continuous
 62
     0
100
AcDbViewport
 10
4.5
 20
3.259162
 30
0.0
 40
12.857143
 41
9.311892
 68
     1
 69
     1
 12
762.9316
 22
546.5183
 13
1169.457242
 23
377.488
 14
0.5
 24
0.5
 15
12.0
 25
12.0
 16
0.0
 26
0.0
 36
1.0
 17
0.0
 27
0.0
 37
0.0
 42
50.0
 43
-55.0
 44
-55.0
 45
1084.5
 50
0.0
 51
0.0
 72
   500
 90
        0
340
0
  1

281
     0
 71
     1
 74
     0
110
0.0
120
0.0
130
0.0
111
1.0
121
0.0
131
0.0
112
0.0
122
1.0
132
0.0
345
0
346
0
 79
     0
146
0.0
  0
ARC
  5
40
100
AcDbEntity
  8
BORDER
370
     0
390
0
  6
Continuous
 62
   174
100
AcDbCircle
 10
654.064547
 20
194.908787
 30
0.0
 40
4.5
100
AcDbArc
 50
360.0
 51
450.0
  0
ARC
  5
41
100
AcDbEntity
  8
BORDER
370
     0
390
0
  6
Continuous
 62
   174
100
AcDbCircle
 10
648.064547
 20
197.908787
 30
0.0
 40
6.0
100
AcDbArc
 50
360.0
 51
450.0
  0
ARC
  5
42
100
AcDbEntity
  8
BORDER
370
    30
390
0
  6
Continuous
 62
    14
100
AcDbCircle
 10
654.064547
 20
194.908787
 30
0.0
 40
6.0
100
AcDbArc
 50
360.0
 51
450.0
  0
ARC
  5
43
100
AcDbEntity
  8
BORDER
370
    30
390
0
  6
Continuous
 62
    14
100
AcDbCircle
 10
648.064547
 20
197.908787
 30
0.0
 40
7.5
100
AcDbArc
 50
0.0
 51
90.0
  0
ARC
  5
44
100
AcDbEntity
  8
BORDER
370
     0
390
0
  6
Continuous
 62
   174
100
AcDbCircle
 10
-73.833756
 20
194.908787
 30
0.0
 40
4.5
100
AcDbArc
 50
90.0
 51
180.0
  0
ARC
  5
45
100
AcDbEntity
  8
BORDER
370
     0
390
0
  6
Continuous
 62
   174
100
AcDbCircle
 10
-67.833756
 20
197.908787
 30
0.0
 40
6.0
100
AcDbArc
 50
90.0
 51
180.0
  0
ARC
  5
46
100
AcDbEntity
  8
BORDER
370
    30
390
0
  6
Continuous
 62
    14
100
AcDbCircle
 10
-73.833756
 20
194.908787
 30
0.0
 40
6.0
100
AcDbArc
 50
90.0
 51
180.0
  0
ARC
  5
47
100
AcDbEntity
  8
BORDER
370
    30
390
0
  6
Continuous
 62
    14
100
AcDbCircle
 10
-67.833756
 20
197.908787
 30
0.0
 40
7.5
100
AcDbArc
 50
90.0
 51
180.0
  0
LINE
  5
48
100
AcDbEntity
  8
BORDER
370
    30
390
0
  6
Continuous
 62
    14
100
AcDbLine
 10
648.064547
 20
205.408787
 30
0.0
 11
-67.833756
 21
205.408787
 31
0.0
  0
LINE
  5
49
100
AcDbEntity
  8
BORDER
370
     0
390
0
  6
Continuous
 62
   174
100
AcDbLine
 10
648.064547
 20
203.908787
 30
0.0
 11
-67.833756
 21
203.908787
 31
0.0
  0
LINE
  5
4A
100
AcDbEntity
  8
BORDER
370
     0
390
0
  6
Continuous
 62
   174
100
AcDbLine
 10
654.064547
 20
199.408787
 30
0.0
 11
-73.833756
 21
199.408787
 31
0.0
  0
LINE
  5
4B
100
AcDbEntity
  8
BORDER
370
    30
390
0
  6
Continuous
 62
    14
100
AcDbLine
 10
654.064547
 20
200.908787
 30
0.0
 11
-73.833756
 21
200.908787
 31
0.0
  0
ARC
  5
4C
100
AcDbEntity
  8
BORDER
370
     0
390
0
  6
Continuous
 62
   174
100
AcDbCircle
 10
654.072904
 20
-304.453259
 30
0.0
 40
4.5
100
AcDbArc
 50
270.0
 51
360.0
  0
ARC
  5
4D
100
AcDbEntity
  8
BORDER
370
     0
390
0
  6
Continuous
 62
   174
100
AcDbCircle
 10
648.072904
 20
-307.453259
 30
0.0
 40
6.0
100
AcDbArc
 50
270.0
 51
360.0
  0
ARC
  5
4E
100
AcDbEntity
  8
BORDER
370
    30
390
0
  6
Continuous
 62
    14
100
AcDbCircle
 10
654.072904
 20
-304.453259
 30
0.0
 40
6.0
100
AcDbArc
 50
270.0
 51
360.0
  0
ARC
  5
4F
100
AcDbEntity
  8
BORDER
370
    30
390
0
  6
Continuous
 62
    14
100
AcDbCircle
 10
648.072904
 20
-307.453259
 30
0.0
 40
7.5
100
AcDbArc
 50
270.0
 51
360.0
  0
ARC
  5
50
100
AcDbEntity
  8
BORDER
370
     0
390
0
  6
Continuous
 62
   174
100
AcDbCircle
 10
-67.83349
 20
-307.496233
 30
0.0
 40
6.0
100
AcDbArc
 50
180.0
 51
270.0
  0
ARC
  5
51
100
AcDbEntity
  8
BORDER
370
    30
390
0
  6
Continuous
 62
    14
100
AcDbCircle
 10
-67.83349
 20
-307.496233
 30
0.0
 40
7.5
100
AcDbArc
 50
180.0
 51
270.0
  0
LINE
  5
52
100
AcDbEntity
  8
BORDER
370
     0
390
0
  6
Continuous
 62
   174
100
AcDbLine
 10
654.072904
 20
-308.953259
 30
0.0
 11
-73.83349
 21
-308.996233
 31
0.0
  0
LINE
  5
53
100
AcDbEntity
  8
BORDER
370
     0
390
0
  6
Continuous
 62
   174
100
AcDbLine
 10
648.072904
 20
-313.453259
 30
0.0
 11
-67.83349
 21
-313.496233
 31
0.0
  0
LINE
  5
54
100
AcDbEntity
  8
BORDER
370
    30
390
0
  6
Continuous
 62
    14
100
AcDbLine
 10
648.072904
 20
-314.953259
 30
0.0
 11
-67.83349
 21
-314.996233
 31
0.0
  0
LINE
  5
55
100
AcDbEntity
  8
BORDER
370
    30
390
0
  6
Continuous
 62
    14
100
AcDbLine
 10
654.072904
 20
-310.453259
 30
0.0
 11
-73.83349
 21
-310.496233
 31
0.0
  0
ARC
  5
56
100
AcDbEntity
  8
BORDER
370
     0
390
0
  6
Continuous
 62
   174
100
AcDbCircle
 10
-73.83349
 20
-304.496233
 30
0.0
 40
4.5
100
AcDbArc
 50
180.0
 51
270.0
  0
ARC
  5
57
100
AcDbEntity
  8
BORDER
370
    30
390
0
  6
Continuous
 62
    14
100
AcDbCircle
 10
-73.83349
 20
-304.496233
 30
0.0
 40
6.0
100
AcDbArc
 50
180.0
 51
270.0
  0
LINE
  5
58
100
AcDbEntity
  8
BORDER
370
    30
390
0
  6
Continuous
 62
    14
100
AcDbLine
 10
660.064547
 20
194.908787
 30
0.0
 11
660.072904
 21
-304.453259
 31
0.0
  0
LINE
  5
59
100
AcDbEntity
  8
BORDER
370
     0
390
0
  6
Continuous
 62
   174
100
AcDbLine
 10
658.564547
 20
194.908787
 30
0.0
 11
658.572904
 21
-304.453259
 31
0.0
  0
LINE
  5
5A
100
AcDbEntity
  8
BORDER
370
    30
390
0
  6
Continuous
 62
    14
100
AcDbLine
 10
655.564547
 20
197.908787
 30
0.0
 11
655.572904
 21
-307.453259
 31
0.0
  0
LINE
  5
5B
100
AcDbEntity
  8
BORDER
370
     0
390
0
  6
Continuous
 62
   174
100
AcDbLine
 10
654.064547
 20
197.908787
 30
0.0
 11
654.072904
 21
-307.453259
 31
0.0
  0
LINE
  5
5C
100
AcDbEntity
  8
BORDER
370
    30
390
0
  6
Continuous
 62
    14
100
AcDbLine
 10
-79.833756
 20
194.908787
 30
0.0
 11
-79.842113
 21
-304.453259
 31
0.0
  0
LINE
  5
5D
100
AcDbEntity
  8
BORDER
370
     0
390
0
  6
Continuous
 62
   174
100
AcDbLine
 10
-78.333756
 20
194.908787
 30
0.0
 11
-78.342113
 21
-304.453259
 31
0.0
  0
LINE
  5
5E
100
AcDbEntity
  8
BORDER
370
    30
390
0
  6
Continuous
 62
    14
100
AcDbLine
 10
-75.333756
 20
197.908787
 30
0.0
 11
-75.342113
 21
-307.453259
 31
0.0
  0
LINE
  5
5F
100
AcDbEntity
  8
BORDER
370
     0
390
0
  6
Continuous
 62
   174
100
AcDbLine
 10
-73.833756
 20
197.908787
 30
0.0
 11
-73.842113
 21
-307.453259
 31
0.0
  0
LINE
  5
61
100
AcDbEntity
  8
POS-HIDDEN
370
     0
390
0
  6
DOT
 62
   214
100
AcDbLine
 10
-9.878119
 20
-253.666838
 30
0.0
 11
-9.878119
 21
-109.656838
 31
0.0
  0
LINE
  5
62
100
AcDbEntity
  8
POS-HIDDEN
370
     0
390
0
  6
DOT
 62
   214
100
AcDbLine
 10
85.511881
 20
-118.713928
 30
0.0
 11
85.511881
 21
-238.713928
 31
0.0
  0
LINE
  5
63
100
AcDbEntity
  8
POS-HIDDEN
370
     0
390
0
  6
DOT
 62
   214
100
AcDbLine
 10
229.636891
 20
-237.708928
 30
0.0
 11
469.636891
 21
-237.708928
 31
0.0
  0
LINE
  5
64
100
AcDbEntity
  8
POS-HIDDEN
370
     0
390
0
  6
DOT
 62
   214
100
AcDbLine
 10
-8.753119
 20
-109.656838
 30
0.0
 11
-8.753119
 21
-253.666838
 31
0.0
  0
LINE
  5
65
100
AcDbEntity
  8
POS-HIDDEN
370
     0
390
0
  6
DOT
 62
   214
100
AcDbLine
 10
-11.003119
 20
-253.789791
 30
0.0
 11
-11.003119
 21
-109.779791
 31
0.0
  0
LINE
  5
66
100
AcDbEntity
  8
POS-HIDDEN
370
     0
390
0
  6
DOT
 62
   214
100
AcDbLine
 10
86.636881
 20
-118.713928
 30
0.0
 11
86.636881
 21
-238.713928
 31
0.0
  0
LINE
  5
67
100
AcDbEntity
  8
POS-HIDDEN
370
     0
390
0
  6
DOT
 62
   214
100
AcDbLine
 10
84.386881
 20
-238.713928
 30
0.0
 11
84.386881
 21
-118.713928
 31
0.0
  0
LINE
  5
68
100
AcDbEntity
  8
POS-HIDDEN
370
     0
390
0
  6
DOT
 62
   214
100
AcDbLine
 10
472.516901
 20
-253.666838
 30
0.0
 11
472.516901
 21
-109.656838
 31
0.0
  0
LINE
  5
69
100
AcDbEntity
  8
POS-HIDDEN
370
     0
390
0
  6
DOT
 62
   214
100
AcDbLine
 10
470.266901
 20
-109.656838
 30
0.0
 11
470.266901
 21
-253.666838
 31
0.0
  0
LINE
  5
6A
100
AcDbEntity
  8
POS-HIDDEN
370
     0
390
0
  6
DOT
 62
   214
100
AcDbLine
 10
471.391901
 20
-109.656838
 30
0.0
 11
471.391901
 21
-253.666838
 31
0.0
  0
LINE
  5
6B
100
AcDbEntity
  8
POS-HIDDEN
370
     0
390
0
  6
DOT
 62
   214
100
AcDbLine
 10
229.636891
 20
-237.708928
 30
0.0
 11
-10.363109
 21
-237.708928
 31
0.0
  0
LINE
  5
6C
100
AcDbEntity
  8
POS-HIDDEN
370
     0
390
0
  6
DOT
 62
   214
100
AcDbLine
 10
227.996891
 20
-252.583928
 30
0.0
 11
227.996891
 21
-108.573928
 31
0.0
  0
LINE
  5
6D
100
AcDbEntity
  8
POS-HIDDEN
370
     0
390
0
  6
DOT
 62
   214
100
AcDbLine
 10
230.246891
 20
-108.573928
 30
0.0
 11
230.246891
 21
-252.583928
 31
0.0
  0
LINE
  5
6E
100
AcDbEntity
  8
POS-HIDDEN
370
     0
390
0
  6
DOT
 62
   214
100
AcDbLine
 10
229.121891
 20
-252.583928
 30
0.0
 11
229.121891
 21
-108.573928
 31
0.0
  0
LINE
  5
6F
100
AcDbEntity
  8
POS-HIDDEN
370
     0
390
0
  6
DOT
 62
   214
100
AcDbLine
 10
363.161881
 20
-238.082258
 30
0.0
 11
363.161881
 21
-118.082258
 31
0.0
  0
LINE
  5
70
100
AcDbEntity
  8
POS-HIDDEN
370
     0
390
0
  6
DOT
 62
   214
100
AcDbLine
 10
365.411881
 20
-118.082258
 30
0.0
 11
365.411881
 21
-238.082258
 31
0.0
  0
LINE
  5
71
100
AcDbEntity
  8
POS-HIDDEN
370
     0
390
0
  6
DOT
 62
   214
100
AcDbLine
 10
364.286881
 20
-238.082258
 30
0.0
 11
364.286881
 21
-118.082258
 31
0.0
  0
LINE
  5
72
100
AcDbEntity
  8
POS-HIDDEN
370
     0
390
0
  6
DOT
 62
   214
100
AcDbLine
 10
229.436891
 20
-119.233928
 30
0.0
 11
469.436891
 21
-119.233928
 31
0.0
  0
LINE
  5
73
100
AcDbEntity
  8
POS-HIDDEN
370
     0
390
0
  6
DOT
 62
   214
100
AcDbLine
 10
229.436891
 20
-118.108928
 30
0.0
 11
469.436891
 21
-118.108928
 31
0.0
  0
LINE
  5
74
100
AcDbEntity
  8
POS-HIDDEN
370
     0
390
0
  6
DOT
 62
   214
100
AcDbLine
 10
312.611881
 20
-129.345598
 30
0.0
 11
312.611881
 21
-9.345598
 31
0.0
  0
LINE
  5
75
100
AcDbEntity
  8
POS-HIDDEN
370
     0
390
0
  6
DOT
 62
   214
100
AcDbLine
 10
314.861881
 20
-9.345598
 30
0.0
 11
314.861881
 21
-129.345598
 31
0.0
  0
LINE
  5
76
100
AcDbEntity
  8
POS-HIDDEN
370
     0
390
0
  6
DOT
 62
   214
100
AcDbLine
 10
313.736881
 20
-9.345598
 30
0.0
 11
313.736881
 21
-129.345598
 31
0.0
  0
LINE
  5
77
100
AcDbEntity
  8
POS-HIDDEN
370
     0
390
0
  6
DOT
 62
   214
100
AcDbLine
 10
167.148081
 20
-44.337098
 30
0.0
 11
167.148081
 21
171.662902
 31
0.0
  0
LINE
  5
78
100
AcDbEntity
  8
POS-HIDDEN
370
     0
390
0
  6
DOT
 62
   214
100
AcDbLine
 10
169.398081
 20
171.662902
 30
0.0
 11
169.398081
 21
-44.337098
 31
0.0
  0
LINE
  5
79
100
AcDbEntity
  8
POS-HIDDEN
370
     0
390
0
  6
DOT
 62
   214
100
AcDbLine
 10
169.398081
 20
-125.345588
 30
0.0
 11
169.398081
 21
-44.337098
 31
0.0
  0
LINE
  5
7A
100
AcDbEntity
  8
POS-HIDDEN
370
     0
390
0
  6
DOT
 62
   214
100
AcDbLine
 10
167.148081
 20
-125.345588
 30
0.0
 11
167.148081
 21
-44.337098
 31
0.0
  0
LINE
  5
7B
100
AcDbEntity
  8
POS-HIDDEN
370
     0
390
0
  6
DOT
 62
   214
100
AcDbLine
 10
168.273081
 20
171.662902
 30
0.0
 11
168.273081
 21
-44.337098
 31
0.0
  0
LINE
  5
7C
100
AcDbEntity
  8
POS-HIDDEN
370
     0
390
0
  6
DOT
 62
   214
100
AcDbLine
 10
168.273081
 20
-125.345588
 30
0.0
 11
168.273081
 21
-44.337098
 31
0.0
  0
LINE
  5
7D
100
AcDbEntity
  8
POS-HIDDEN
370
     0
390
0
  6
DOT
 62
   214
100
AcDbLine
 10
38.812301
 20
-11.735418
 30
0.0
 11
181.636891
 21
-11.833928
 31
0.0
  0
LINE
  5
7E
100
AcDbEntity
  8
POS-HIDDEN
370
     0
390
0
  6
DOT
 62
   214
100
AcDbLine
 10
38.812301
 20
-9.485418
 30
0.0
 11
181.636891
 21
-9.583928
 31
0.0
  0
LINE
  5
7F
100
AcDbEntity
  8
POS-HIDDEN
370
     0
390
0
  6
DOT
 62
   214
100
AcDbLine
 10
181.636891
 20
-9.583928
 30
0.0
 11
421.636891
 21
-9.583928
 31
0.0
  0
LINE
  5
80
100
AcDbEntity
  8
POS-HIDDEN
370
     0
390
0
  6
DOT
 62
   214
100
AcDbLine
 10
421.636891
 20
-11.833928
 30
0.0
 11
181.636891
 21
-11.833928
 31
0.0
  0
LINE
  5
81
100
AcDbEntity
  8
POS-HIDDEN
370
     0
390
0
  6
DOT
 62
   214
100
AcDbLine
 10
38.812301
 20
-10.610418
 30
0.0
 11
181.636891
 21
-10.708928
 31
0.0
  0
LINE
  5
82
100
AcDbEntity
  8
POS-HIDDEN
370
     0
390
0
  6
DOT
 62
   214
100
AcDbLine
 10
181.636891
 20
-10.708928
 30
0.0
 11
421.636891
 21
-10.708928
 31
0.0
  0
LINE
  5
83
100
AcDbEntity
  8
POS-HIDDEN
370
     0
390
0
  6
DOT
 62
   214
100
AcDbLine
 10
-10.563109
 20
-116.983928
 30
0.0
 11
229.436891
 21
-116.983928
 31
0.0
  0
LINE
  5
84
100
AcDbEntity
  8
POS-HIDDEN
370
     0
390
0
  6
DOT
 62
   214
100
AcDbLine
 10
229.436891
 20
-118.108928
 30
0.0
 11
-10.563109
 21
-118.108928
 31
0.0
  0
LINE
  5
85
100
AcDbEntity
  8
POS-HIDDEN
370
     0
390
0
  6
DOT
 62
   214
100
AcDbLine
 10
235.978551
 20
-126.345588
 30
0.0
 11
235.978551
 21
-6.345588
 31
0.0
  0
LINE
  5
86
100
AcDbEntity
  8
POS-HIDDEN
370
     0
390
0
  6
DOT
 62
   214
100
AcDbLine
 10
238.228551
 20
-6.345588
 30
0.0
 11
238.228551
 21
-126.345588
 31
0.0
  0
LINE
  5
87
100
AcDbEntity
  8
POS-HIDDEN
370
     0
390
0
  6
DOT
 62
   214
100
AcDbLine
 10
237.103551
 20
-6.345588
 30
0.0
 11
237.103551
 21
-126.345588
 31
0.0
  0
LINE
  5
88
100
AcDbEntity
  8
POS-HIDDEN
370
     0
390
0
  6
DOT
 62
   214
100
AcDbLine
 10
228.506891
 20
-93.713928
 30
0.0
 11
228.506891
 21
146.286072
 31
0.0
  0
LINE
  5
89
100
AcDbEntity
  8
POS-HIDDEN
370
     0
390
0
  6
DOT
 62
   214
100
AcDbLine
 10
230.756891
 20
146.286072
 30
0.0
 11
230.756891
 21
-93.713928
 31
0.0
  0
LINE
  5
8A
100
AcDbEntity
  8
0
370
     0
390
0
  6
Continuous
 62
     7
100
AcDbLine
 10
277.636891
 20
-303.57168
 30
0.0
 11
277.636891
 21
-297.57168
 31
0.0
  0
LINE
  5
8B
100
AcDbEntity
  8
0
370
     0
390
0
  6
Continuous
 62
     7
100
AcDbLine
 10
289.636891
 20
-303.57168
 30
0.0
 11
289.636891
 21
-291.57168
 31
0.0
  0
LINE
  5
8C
100
AcDbEntity
  8
0
370
     0
390
0
  6
Continuous
 62
     7
100
AcDbLine
 10
301.636891
 20
-303.57168
 30
0.0
 11
301.636891
 21
-297.57168
 31
0.0
  0
LINE
  5
8D
100
AcDbEntity
  8
0
370
     0
390
0
  6
Continuous
 62
     7
100
AcDbLine
 10
313.636891
 20
-303.57168
 30
0.0
 11
313.636891
 21
-291.57168
 31
0.0
  0
LINE
  5
8E
100
AcDbEntity
  8
0
370
     0
390
0
  6
Continuous
 62
     7
100
AcDbLine
 10
325.636891
 20
-303.57168
 30
0.0
 11
325.636891
 21
-297.57168
 31
0.0
  0
LINE
  5
8F
100
AcDbEntity
  8
0
370
     0
390
0
  6
Continuous
 62
     7
100
AcDbLine
 10
337.636891
 20
-303.57168
 30
0.0
 11
337.636891
 21
-291.57168
 31
0.0
  0
LINE
  5
90
100
AcDbEntity
  8
0
370
     0
390
0
  6
Continuous
 62
     7
100
AcDbLine
 10
349.636891
 20
-303.57168
 30
0.0
 11
349.636891
 21
-297.57168
 31
0.0
  0
LINE
  5
91
100
AcDbEntity
  8
0
370
     0
390
0
  6
Continuous
 62
     7
100
AcDbLine
 10
361.636891
 20
-303.57168
 30
0.0
 11
361.636891
 21
-291.57168
 31
0.0
  0
LINE
  5
92
100
AcDbEntity
  8
0
370
     0
390
0
  6
Continuous
 62
     7
100
AcDbLine
 10
373.636891
 20
-303.57168
 30
0.0
 11
373.636891
 21
-297.57168
 31
0.0
  0
LINE
  5
93
100
AcDbEntity
  8
0
370
     0
390
0
  6
Continuous
 62
     7
100
AcDbLine
 10
385.636891
 20
-303.57168
 30
0.0
 11
385.636891
 21
-291.57168
 31
0.0
  0
LINE
  5
94
100
AcDbEntity
  8
0
370
     0
390
0
  6
Continuous
 62
     7
100
AcDbLine
 10
397.636891
 20
-303.57168
 30
0.0
 11
397.636891
 21
-297.57168
 31
0.0
  0
LINE
  5
95
100
AcDbEntity
  8
0
370
     0
390
0
  6
Continuous
 62
     7
100
AcDbLine
 10
409.636891
 20
-303.57168
 30
0.0
 11
409.636891
 21
-291.57168
 31
0.0
  0
LINE
  5
96
100
AcDbEntity
  8
0
370
     0
390
0
  6
Continuous
 62
     7
100
AcDbLine
 10
421.636891
 20
-303.57168
 30
0.0
 11
421.636891
 21
-297.57168
 31
0.0
  0
LINE
  5
97
100
AcDbEntity
  8
0
370
     0
390
0
  6
Continuous
 62
     7
100
AcDbLine
 10
433.636891
 20
-303.57168
 30
0.0
 11
433.636891
 21
-291.57168
 31
0.0
  0
LINE
  5
98
100
AcDbEntity
  8
0
370
     0
390
0
  6
Continuous
 62
     7
100
AcDbLine
 10
445.636891
 20
-303.57168
 30
0.0
 11
445.636891
 21
-297.57168
 31
0.0
  0
LINE
  5
99
100
AcDbEntity
  8
0
370
     0
390
0
  6
Continuous
 62
     7
100
AcDbLine
 10
457.636891
 20
-303.57168
 30
0.0
 11
457.636891
 21
-291.57168
 31
0.0
  0
LINE
  5
9A
100
AcDbEntity
  8
0
370
     0
390
0
  6
Continuous
 62
     7
100
AcDbLine
 10
469.636891
 20
-303.57168
 30
0.0
 11
469.636891
 21
-297.57168
 31
0.0
  0
LINE
  5
9B
100
AcDbEntity
  8
0
370
     0
390
0
  6
Continuous
 62
     7
100
AcDbLine
 10
217.636891
 20
-303.57168
 30
0.0
 11
217.636891
 21
-291.57168
 31
0.0
  0
LINE
  5
9C
100
AcDbEntity
  8
0
370
     0
390
0
  6
Continuous
 62
     7
100
AcDbLine
 10
205.636891
 20
-303.57168
 30
0.0
 11
205.636891
 21
-297.57168
 31
0.0
  0
LINE
  5
9D
100
AcDbEntity
  8
0
370
     0
390
0
  6
Continuous
 62
     7
100
AcDbLine
 10
193.636891
 20
-303.57168
 30
0.0
 11
193.636891
 21
-291.57168
 31
0.0
  0
LINE
  5
9E
100
AcDbEntity
  8
0
370
     0
390
0
  6
Continuous
 62
     7
100
AcDbLine
 10
181.636891
 20
-303.57168
 30
0.0
 11
181.636891
 21
-297.57168
 31
0.0
  0
LINE
  5
9F
100
AcDbEntity
  8
0
370
     0
390
0
  6
Continuous
 62
     7
100
AcDbLine
 10
169.636891
 20
-303.57168
 30
0.0
 11
169.636891
 21
-291.57168
 31
0.0
  0
LINE
  5
A0
100
AcDbEntity
  8
0
370
     0
390
0
  6
Continuous
 62
     7
100
AcDbLine
 10
157.636891
 20
-303.57168
 30
0.0
 11
157.636891
 21
-297.57168
 31
0.0
  0
LINE
  5
A1
100
AcDbEntity
  8
0
370
     0
390
0
  6
Continuous
 62
     7
100
AcDbLine
 10
145.636891
 20
-303.57168
 30
0.0
 11
145.636891
 21
-291.57168
 31
0.0
  0
LINE
  5
A2
100
AcDbEntity
  8
0
370
     0
390
0
  6
Continuous
 62
     7
100
AcDbLine
 10
133.636891
 20
-303.57168
 30
0.0
 11
133.636891
 21
-297.57168
 31
0.0
  0
LINE
  5
A3
100
AcDbEntity
  8
0
370
     0
390
0
  6
Continuous
 62
     7
100
AcDbLine
 10
121.636891
 20
-303.57168
 30
0.0
 11
121.636891
 21
-291.57168
 31
0.0
  0
LINE
  5
A4
100
AcDbEntity
  8
0
370
     0
390
0
  6
Continuous
 62
     7
100
AcDbLine
 10
109.636891
 20
-303.57168
 30
0.0
 11
109.636891
 21
-297.57168
 31
0.0
  0
LINE
  5
A5
100
AcDbEntity
  8
0
370
     0
390
0
  6
Continuous
 62
     7
100
AcDbLine
 10
97.636891
 20
-303.57168
 30
0.0
 11
97.636891
 21
-291.57168
 31
0.0
  0
LINE
  5
A6
100
AcDbEntity
  8
0
370
     0
390
0
  6
Continuous
 62
     7
100
AcDbLine
 10
85.636891
 20
-303.57168
 30
0.0
 11
85.636891
 21
-297.57168
 31
0.0
  0
LINE
  5
A7
100
AcDbEntity
  8
0
370
     0
390
0
  6
Continuous
 62
     7
100
AcDbLine
 10
73.636891
 20
-303.57168
 30
0.0
 11
73.636891
 21
-291.57168
 31
0.0
  0
LINE
  5
A8
100
AcDbEntity
  8
0
370
     0
390
0
  6
Continuous
 62
     7
100
AcDbLine
 10
61.636891
 20
-303.57168
 30
0.0
 11
61.636891
 21
-297.57168
 31
0.0
  0
LINE
  5
A9
100
AcDbEntity
  8
0
370
     0
390
0
  6
Continuous
 62
     7
100
AcDbLine
 10
49.636891
 20
-303.57168
 30
0.0
 11
49.636891
 21
-291.57168
 31
0.0
  0
LINE
  5
AA
100
AcDbEntity
  8
0
370
     0
390
0
  6
Continuous
 62
     7
100
AcDbLine
 10
37.636891
 20
-303.57168
 30
0.0
 11
37.636891
 21
-297.57168
 31
0.0
  0
LINE
  5
AB
100
AcDbEntity
  8
0
370
     0
390
0
  6
Continuous
 62
     7
100
AcDbLine
 10
25.636891
 20
-303.57168
 30
0.0
 11
25.636891
 21
-291.57168
 31
0.0
  0
LINE
  5
AC
100
AcDbEntity
  8
0
370
     0
390
0
  6
Continuous
 62
     7
100
AcDbLine
 10
13.636891
 20
-303.57168
 30
0.0
 11
13.636891
 21
-297.57168
 31
0.0
  0
LINE
  5
AD
100
AcDbEntity
  8
0
370
     0
390
0
  6
Continuous
 62
     7
100
AcDbLine
 10
1.636891
 20
-303.57168
 30
0.0
 11
1.636891
 21
-291.57168
 31
0.0
  0
LINE
  5
AE
100
AcDbEntity
  8
0
370
     0
390
0
  6
Continuous
 62
     7
100
AcDbLine
 10
-10.363109
 20
-303.57168
 30
0.0
 11
-10.363109
 21
-297.57168
 31
0.0
  0
LINE
  5
AF
100
AcDbEntity
  8
0
370
     0
390
0
  6
Continuous
 62
     7
100
AcDbLine
 10
241.636891
 20
-303.57168
 30
0.0
 11
241.636891
 21
-291.57168
 31
0.0
  0
LINE
  5
B0
100
AcDbEntity
  8
0
370
     0
390
0
  6
Continuous
 62
     7
100
AcDbLine
 10
253.636891
 20
-303.57168
 30
0.0
 11
253.636891
 21
-297.57168
 31
0.0
  0
LINE
  5
B1
100
AcDbEntity
  8
0
370
     0
390
0
  6
Continuous
 62
     7
100
AcDbLine
 10
265.636891
 20
-303.57168
 30
0.0
 11
265.636891
 21
-291.57168
 31
0.0
  0
LINE
  5
B2
100
AcDbEntity
  8
0
370
     0
390
0
  6
Continuous
 62
     7
100
AcDbLine
 10
229.636891
 20
-303.57168
 30
0.0
 11
469.636891
 21
-303.57168
 31
0.0
  0
LINE
  5
B3
100
AcDbEntity
  8
0
370
     0
390
0
  6
Continuous
 62
     7
100
AcDbLine
 10
229.636891
 20
-303.57168
 30
0.0
 11
-10.363109
 21
-303.57168
 31
0.0
  0
LINE
  5
B4
100
AcDbEntity
  8
0
370
     0
390
0
  6
Continuous
 62
   174
100
AcDbLine
 10
541.454661
 20
-51.033326
 30
0.0
 11
577.454661
 21
-51.033326
 31
0.0
  0
LINE
  5
B5
100
AcDbEntity
  8
0
370
     0
390
0
  6
Continuous
 62
     7
100
AcDbLine
 10
541.454661
 20
56.966674
 30
0.0
 11
553.454661
 21
56.966674
 31
0.0
  0
LINE
  5
B6
100
AcDbEntity
  8
0
370
     0
390
0
  6
Continuous
 62
     7
100
AcDbLine
 10
541.454661
 20
44.966674
 30
0.0
 11
547.454661
 21
44.966674
 31
0.0
  0
LINE
  5
B7
100
AcDbEntity
  8
0
370
     0
390
0
  6
Continuous
 62
     7
100
AcDbLine
 10
541.454661
 20
32.966674
 30
0.0
 11
553.454661
 21
32.966674
 31
0.0
  0
LINE
  5
B8
100
AcDbEntity
  8
0
370
     0
390
0
  6
Continuous
 62
     7
100
AcDbLine
 10
541.454661
 20
20.966674
 30
0.0
 11
547.454661
 21
20.966674
 31
0.0
  0
LINE
  5
B9
100
AcDbEntity
  8
0
370
     0
390
0
  6
Continuous
 62
     7
100
AcDbLine
 10
541.454661
 20
8.966674
 30
0.0
 11
553.454661
 21
8.966674
 31
0.0
  0
LINE
  5
BA
100
AcDbEntity
  8
0
370
     0
390
0
  6
Continuous
 62
     7
100
AcDbLine
 10
541.454661
 20
-3.033326
 30
0.0
 11
547.454661
 21
-3.033326
 31
0.0
  0
LINE
  5
BB
100
AcDbEntity
  8
0
370
     0
390
0
  6
Continuous
 62
     7
100
AcDbLine
 10
541.454661
 20
-15.033326
 30
0.0
 11
553.454661
 21
-15.033326
 31
0.0
  0
LINE
  5
BC
100
AcDbEntity
  8
0
370
     0
390
0
  6
Continuous
 62
     7
100
AcDbLine
 10
541.454661
 20
-27.033326
 30
0.0
 11
547.454661
 21
-27.033326
 31
0.0
  0
LINE
  5
BD
100
AcDbEntity
  8
0
370
     0
390
0
  6
Continuous
 62
     7
100
AcDbLine
 10
541.454661
 20
152.966674
 30
0.0
 11
553.454661
 21
152.966674
 31
0.0
  0
LINE
  5
BE
100
AcDbEntity
  8
0
370
     0
390
0
  6
Continuous
 62
     7
100
AcDbLine
 10
541.454661
 20
140.966674
 30
0.0
 11
547.454661
 21
140.966674
 31
0.0
  0
LINE
  5
BF
100
AcDbEntity
  8
0
370
     0
390
0
  6
Continuous
 62
     7
100
AcDbLine
 10
541.454661
 20
128.966674
 30
0.0
 11
553.454661
 21
128.966674
 31
0.0
  0
LINE
  5
C0
100
AcDbEntity
  8
0
370
     0
390
0
  6
Continuous
 62
     7
100
AcDbLine
 10
541.454661
 20
116.966674
 30
0.0
 11
547.454661
 21
116.966674
 31
0.0
  0
LINE
  5
C1
100
AcDbEntity
  8
0
370
     0
390
0
  6
Continuous
 62
     7
100
AcDbLine
 10
541.454661
 20
104.966674
 30
0.0
 11
553.454661
 21
104.966674
 31
0.0
  0
LINE
  5
C2
100
AcDbEntity
  8
0
370
     0
390
0
  6
Continuous
 62
     7
100
AcDbLine
 10
541.454661
 20
92.966674
 30
0.0
 11
547.454661
 21
92.966674
 31
0.0
  0
LINE
  5
C3
100
AcDbEntity
  8
0
370
     0
390
0
  6
Continuous
 62
     7
100
AcDbLine
 10
541.454661
 20
80.966674
 30
0.0
 11
553.454661
 21
80.966674
 31
0.0
  0
LINE
  5
C4
100
AcDbEntity
  8
0
370
     0
390
0
  6
Continuous
 62
     7
100
AcDbLine
 10
541.454661
 20
68.966674
 30
0.0
 11
547.454661
 21
68.966674
 31
0.0
  0
LINE
  5
C5
100
AcDbEntity
  8
0
370
     0
390
0
  6
Continuous
 62
     7
100
AcDbLine
 10
541.454661
 20
200.966674
 30
0.0
 11
553.454661
 21
200.966674
 31
0.0
  0
LINE
  5
C6
100
AcDbEntity
  8
0
370
     0
390
0
  6
Continuous
 62
     7
100
AcDbLine
 10
541.454661
 20
188.966674
 30
0.0
 11
547.454661
 21
188.966674
 31
0.0
  0
LINE
  5
C7
100
AcDbEntity
  8
0
370
     0
390
0
  6
Continuous
 62
     7
100
AcDbLine
 10
541.454661
 20
176.966674
 30
0.0
 11
553.454661
 21
176.966674
 31
0.0
  0
LINE
  5
C8
100
AcDbEntity
  8
0
370
     0
390
0
  6
Continuous
 62
     7
100
AcDbLine
 10
541.454661
 20
164.966674
 30
0.0
 11
547.454661
 21
164.966674
 31
0.0
  0
LINE
  5
C9
100
AcDbEntity
  8
0
370
     0
390
0
  6
Continuous
 62
     7
100
AcDbLine
 10
541.454661
 20
-39.033326
 30
0.0
 11
553.454661
 21
-39.033326
 31
0.0
  0
ARC
  5
CA
100
AcDbEntity
  8
TITLE BLOCK
370
     0
390
0
  6
Continuous
 62
   174
100
AcDbCircle
 10
645.492357
 20
-298.217989
 30
0.0
 40
2.25
100
AcDbArc
 50
270.0
 51
360.0
  0
ARC
  5
CB
100
AcDbEntity
  8
TITLE BLOCK
370
     0
390
0
  6
Continuous
 62
   174
100
AcDbCircle
 10
642.492357
 20
-299.717989
 30
0.0
 40
3.0
100
AcDbArc
 50
270.0
 51
360.0
  0
ARC
  5
CC
100
AcDbEntity
  8
TITLE BLOCK
370
    30
390
0
  6
Continuous
 62
    14
100
AcDbCircle
 10
645.492357
 20
-298.217989
 30
0.0
 40
3.0
100
AcDbArc
 50
270.0
 51
360.0
  0
ARC
  5
CD
100
AcDbEntity
  8
TITLE BLOCK
370
    30
390
0
  6
Continuous
 62
    14
100
AcDbCircle
 10
642.492357
 20
-299.717989
 30
0.0
 40
3.75
100
AcDbArc
 50
270.0
 51
360.0
  0
ARC
  5
CE
100
AcDbEntity
  8
TITLE BLOCK
370
     0
390
0
  6
Continuous
 62
   174
100
AcDbCircle
 10
645.492357
 20
-232.28245
 30
0.0
 40
2.25
100
AcDbArc
 50
0.0
 51
90.0
  0
ARC
  5
CF
100
AcDbEntity
  8
TITLE BLOCK
370
     0
390
0
  6
Continuous
 62
   174
100
AcDbCircle
 10
642.492357
 20
-230.78245
 30
0.0
 40
3.0
100
AcDbArc
 50
0.0
 51
90.0
  0
ARC
  5
D0
100
AcDbEntity
  8
TITLE BLOCK
370
    30
390
0
  6
Continuous
 62
    14
100
AcDbCircle
 10
645.492357
 20
-232.28245
 30
0.0
 40
3.0
100
AcDbArc
 50
0.0
 51
90.0
  0
ARC
  5
D1
100
AcDbEntity
  8
TITLE BLOCK
370
    30
390
0
  6
Continuous
 62
    14
100
AcDbCircle
 10
642.492357
 20
-230.78245
 30
0.0
 40
3.75
100
AcDbArc
 50
360.0
 51
450.0
  0
ARC
  5
D2
100
AcDbEntity
  8
TITLE BLOCK
370
     0
390
0
  6
Continuous
 62
   174
100
AcDbCircle
 10
519.492357
 20
-298.217989
 30
0.0
 40
2.25
100
AcDbArc
 50
180.0
 51
270.0
  0
ARC
  5
D3
100
AcDbEntity
  8
TITLE BLOCK
370
     0
390
0
  6
Continuous
 62
   174
100
AcDbCircle
 10
522.492357
 20
-299.717989
 30
0.0
 40
3.0
100
AcDbArc
 50
180.0
 51
270.0
  0
ARC
  5
D4
100
AcDbEntity
  8
TITLE BLOCK
370
    30
390
0
  6
Continuous
 62
    14
100
AcDbCircle
 10
519.492357
 20
-298.217989
 30
0.0
 40
3.0
100
AcDbArc
 50
180.0
 51
270.0
  0
ARC
  5
D5
100
AcDbEntity
  8
TITLE BLOCK
370
    30
390
0
  6
Continuous
 62
    14
100
AcDbCircle
 10
522.492357
 20
-299.717989
 30
0.0
 40
3.75
100
AcDbArc
 50
180.0
 51
270.0
  0
ARC
  5
D6
100
AcDbEntity
  8
TITLE BLOCK
370
     0
390
0
  6
Continuous
 62
   174
100
AcDbCircle
 10
519.492357
 20
-232.28245
 30
0.0
 40
2.25
100
AcDbArc
 50
90.0
 51
180.0
  0
ARC
  5
D7
100
AcDbEntity
  8
TITLE BLOCK
370
     0
390
0
  6
Continuous
 62
   174
100
AcDbCircle
 10
522.492357
 20
-230.78245
 30
0.0
 40
3.0
100
AcDbArc
 50
90.0
 51
180.0
  0
ARC
  5
D8
100
AcDbEntity
  8
TITLE BLOCK
370
    30
390
0
  6
Continuous
 62
    14
100
AcDbCircle
 10
519.492357
 20
-232.28245
 30
0.0
 40
3.0
100
AcDbArc
 50
90.0
 51
180.0
  0
ARC
  5
D9
100
AcDbEntity
  8
TITLE BLOCK
370
    30
390
0
  6
Continuous
 62
    14
100
AcDbCircle
 10
522.492357
 20
-230.78245
 30
0.0
 40
3.75
100
AcDbArc
 50
90.0
 51
180.0
  0
LINE
  5
DA
100
AcDbEntity
  8
TITLE BLOCK
370
     0
390
0
  6
Continuous
 62
   174
100
AcDbLine
 10
517.242357
 20
-298.217989
 30
0.0
 11
517.242357
 21
-232.28245
 31
0.0
  0
LINE
  5
DB
100
AcDbEntity
  8
TITLE BLOCK
370
    30
390
0
  6
Continuous
 62
    14
100
AcDbLine
 10
516.492357
 20
-298.217989
 30
0.0
 11
516.492357
 21
-232.28245
 31
0.0
  0
LINE
  5
DC
100
AcDbEntity
  8
TITLE BLOCK
370
    30
390
0
  6
Continuous
 62
    14
100
AcDbLine
 10
642.492357
 20
-227.03245
 30
0.0
 11
522.492357
 21
-227.03245
 31
0.0
  0
LINE
  5
DD
100
AcDbEntity
  8
TITLE BLOCK
370
     0
390
0
  6
Continuous
 62
   174
100
AcDbLine
 10
642.492357
 20
-227.78245
 30
0.0
 11
522.492357
 21
-227.78245
 31
0.0
  0
LINE
  5
DE
100
AcDbEntity
  8
TITLE BLOCK
370
    30
390
0
  6
Continuous
 62
    14
100
AcDbLine
 10
648.492357
 20
-298.217989
 30
0.0
 11
648.492357
 21
-232.28245
 31
0.0
  0
LINE
  5
DF
100
AcDbEntity
  8
TITLE BLOCK
370
     0
390
0
  6
Continuous
 62
   174
100
AcDbLine
 10
647.742357
 20
-298.217989
 30
0.0
 11
647.742357
 21
-232.28245
 31
0.0
  0
LINE
  5
E0
100
AcDbEntity
  8
TITLE BLOCK
370
     0
390
0
  6
Continuous
 62
   174
100
AcDbLine
 10
642.492357
 20
-302.717989
 30
0.0
 11
522.492357
 21
-302.717989
 31
0.0
  0
LINE
  5
E1
100
AcDbEntity
  8
TITLE BLOCK
370
    30
390
0
  6
Continuous
 62
    14
100
AcDbLine
 10
642.492357
 20
-303.467989
 30
0.0
 11
522.492357
 21
-303.467989
 31
0.0
  0
LINE
  5
E2
100
AcDbEntity
  8
POS-HIDDEN
370
     0
390
0
  6
DOT
 62
   214
100
AcDbLine
 10
420.457291
 20
31.254582
 30
0.0
 11
228.457291
 21
31.254582
 31
0.0
  0
LINE
  5
E3
100
AcDbEntity
  8
POS-HIDDEN
370
     0
390
0
  6
DOT
 62
   214
100
AcDbLine
 10
360.212301
 20
-19.135418
 30
0.0
 11
360.212301
 21
148.864582
 31
0.0
  0
LINE
  5
E4
100
AcDbEntity
  8
POS-HIDDEN
370
     0
390
0
  6
DOT
 62
   214
100
AcDbLine
 10
362.462301
 20
148.864582
 30
0.0
 11
362.462301
 21
-19.135418
 31
0.0
  0
LINE
  5
E5
100
AcDbEntity
  8
POS-HIDDEN
370
     0
390
0
  6
DOT
 62
   214
100
AcDbLine
 10
421.152711
 20
-26.063348
 30
0.0
 11
421.152711
 21
141.936652
 31
0.0
  0
LINE
  5
E6
100
AcDbEntity
  8
POS-HIDDEN
370
     0
390
0
  6
DOT
 62
   214
100
AcDbLine
 10
423.402711
 20
141.936652
 30
0.0
 11
423.402711
 21
-26.063348
 31
0.0
  0
LINE
  5
E7
100
AcDbEntity
  8
POS-HIDDEN
370
     0
390
0
  6
DOT
 62
   214
100
AcDbLine
 10
361.337301
 20
148.864582
 30
0.0
 11
361.337301
 21
-19.135418
 31
0.0
  0
LINE
  5
E8
100
AcDbEntity
  8
POS-HIDDEN
370
     0
390
0
  6
DOT
 62
   214
100
AcDbLine
 10
422.277711
 20
141.936652
 30
0.0
 11
422.277711
 21
-26.063348
 31
0.0
  0
LINE
  5
E9
100
AcDbEntity
  8
POS-HIDDEN
370
     0
390
0
  6
DOT
 62
   214
100
AcDbLine
 10
230.816471
 20
32.379582
 30
0.0
 11
38.816471
 21
32.379582
 31
0.0
  0
LINE
  5
EA
100
AcDbEntity
  8
POS-HIDDEN
370
     0
390
0
  6
DOT
 62
   214
100
AcDbLine
 10
38.816471
 20
30.129582
 30
0.0
 11
230.816471
 21
30.129582
 31
0.0
  0
LINE
  5
EB
100
AcDbEntity
  8
POS-HIDDEN
370
     0
390
0
  6
DOT
 62
   214
100
AcDbLine
 10
228.816471
 20
69.379582
 30
0.0
 11
36.816471
 21
69.379582
 31
0.0
  0
LINE
  5
EC
100
AcDbEntity
  8
POS-HIDDEN
370
     0
390
0
  6
DOT
 62
   214
100
AcDbLine
 10
36.816471
 20
67.129582
 30
0.0
 11
228.816471
 21
67.129582
 31
0.0
  0
LINE
  5
ED
100
AcDbEntity
  8
POS-HIDDEN
370
     0
390
0
  6
DOT
 62
   214
100
AcDbLine
 10
38.816471
 20
31.254582
 30
0.0
 11
230.816471
 21
31.254582
 31
0.0
  0
LINE
  5
EE
100
AcDbEntity
  8
POS-HIDDEN
370
     0
390
0
  6
DOT
 62
   214
100
AcDbLine
 10
36.816471
 20
68.254582
 30
0.0
 11
228.816471
 21
68.254582
 31
0.0
  0
LINE
  5
EF
100
AcDbEntity
  8
POS-HIDDEN
370
     0
390
0
  6
DOT
 62
   214
100
AcDbLine
 10
230.457291
 20
69.379582
 30
0.0
 11
422.457291
 21
69.379582
 31
0.0
  0
LINE
  5
F0
100
AcDbEntity
  8
POS-HIDDEN
370
     0
390
0
  6
DOT
 62
   214
100
AcDbLine
 10
422.457291
 20
67.129582
 30
0.0
 11
230.457291
 21
67.129582
 31
0.0
  0
LINE
  5
F1
100
AcDbEntity
  8
POS-HIDDEN
370
     0
390
0
  6
DOT
 62
   214
100
AcDbLine
 10
422.457291
 20
68.254582
 30
0.0
 11
230.457291
 21
68.254582
 31
0.0
  0
LINE
  5
F2
100
AcDbEntity
  8
POS-HIDDEN
370
     0
390
0
  6
DOT
 62
   214
100
AcDbLine
 10
35.511881
 20
-35.713928
 30
0.0
 11
35.511881
 21
132.286072
 31
0.0
  0
LINE
  5
F3
100
AcDbEntity
  8
POS-HIDDEN
370
     0
390
0
  6
DOT
 62
   214
100
AcDbLine
 10
37.761881
 20
132.286072
 30
0.0
 11
37.761881
 21
-35.713928
 31
0.0
  0
LINE
  5
F4
100
AcDbEntity
  8
POS-HIDDEN
370
     0
390
0
  6
DOT
 62
   214
100
AcDbLine
 10
-56.363119
 20
69.416072
 30
0.0
 11
39.636881
 21
69.416072
 31
0.0
  0
LINE
  5
F5
100
AcDbEntity
  8
POS-HIDDEN
370
     0
390
0
  6
DOT
 62
   214
100
AcDbLine
 10
39.636881
 20
67.156072
 30
0.0
 11
-56.363119
 21
67.156072
 31
0.0
  0
LINE
  5
F6
100
AcDbEntity
  8
POS-HIDDEN
370
     0
390
0
  6
DOT
 62
   214
100
AcDbLine
 10
39.636881
 20
68.281072
 30
0.0
 11
-56.363119
 21
68.281072
 31
0.0
  0
LINE
  5
F7
100
AcDbEntity
  8
POS-HIDDEN
370
     0
390
0
  6
DOT
 62
   214
100
AcDbLine
 10
36.636881
 20
132.286072
 30
0.0
 11
36.636881
 21
-35.713928
 31
0.0
  0
LINE
  5
F8
100
AcDbEntity
  8
POS-HIDDEN
370
     0
390
0
  6
DOT
 62
   214
100
AcDbLine
 10
108.636891
 20
143.286072
 30
0.0
 11
348.636891
 21
143.286072
 31
0.0
  0
LINE
  5
F9
100
AcDbEntity
  8
POS-HIDDEN
370
     0
390
0
  6
DOT
 62
   214
100
AcDbLine
 10
235.457291
 20
113.379582
 30
0.0
 11
427.457291
 21
113.379582
 31
0.0
  0
LINE
  5
FA
100
AcDbEntity
  8
POS-HIDDEN
370
     0
390
0
  6
DOT
 62
   214
100
AcDbLine
 10
427.457291
 20
111.129582
 30
0.0
 11
235.457291
 21
111.129582
 31
0.0
  0
LINE
  5
FB
100
AcDbEntity
  8
POS-HIDDEN
370
     0
390
0
  6
DOT
 62
   214
100
AcDbLine
 10
106.636891
 20
188.416072
 30
0.0
 11
346.636891
 21
188.416072
 31
0.0
  0
LINE
  5
FC
100
AcDbEntity
  8
POS-HIDDEN
370
     0
390
0
  6
DOT
 62
   214
100
AcDbLine
 10
346.636891
 20
186.166072
 30
0.0
 11
106.636891
 21
186.166072
 31
0.0
  0
LINE
  5
FD
100
AcDbEntity
  8
POS-HIDDEN
370
     0
390
0
  6
DOT
 62
   214
100
AcDbLine
 10
348.636891
 20
142.161072
 30
0.0
 11
108.636891
 21
142.161072
 31
0.0
  0
LINE
  5
FE
100
AcDbEntity
  8
POS-HIDDEN
370
     0
390
0
  6
DOT
 62
   214
100
AcDbLine
 10
427.457291
 20
112.254582
 30
0.0
 11
235.457291
 21
112.254582
 31
0.0
  0
LINE
  5
FF
100
AcDbEntity
  8
POS-HIDDEN
370
     0
390
0
  6
DOT
 62
   214
100
AcDbLine
 10
346.636891
 20
187.291072
 30
0.0
 11
106.636891
 21
187.291072
 31
0.0
  0
LINE
  5
100
100
AcDbEntity
  8
POS-HIDDEN
370
     0
390
0
  6
DOT
 62
   214
100
AcDbLine
 10
294.598061
 20
-29.537098
 30
0.0
 11
294.598061
 21
186.462902
 31
0.0
  0
LINE
  5
101
100
AcDbEntity
  8
POS-HIDDEN
370
     0
390
0
  6
DOT
 62
   214
100
AcDbLine
 10
296.848061
 20
186.462902
 30
0.0
 11
296.848061
 21
-29.537098
 31
0.0
  0
LINE
  5
102
100
AcDbEntity
  8
POS-HIDDEN
370
     0
390
0
  6
DOT
 62
   214
100
AcDbLine
 10
295.723061
 20
186.462902
 30
0.0
 11
295.723061
 21
-29.537098
 31
0.0
  0
LINE
  5
103
100
AcDbEntity
  8
POS-HIDDEN
370
     0
390
0
  6
DOT
 62
   214
100
AcDbLine
 10
229.636891
 20
-93.708928
 30
0.0
 11
-10.363109
 21
-93.708928
 31
0.0
  0
LINE
  5
104
100
AcDbEntity
  8
POS-HIDDEN
370
     0
390
0
  6
DOT
 62
   214
100
AcDbLine
 10
233.816471
 20
113.379582
 30
0.0
 11
41.816471
 21
113.379582
 31
0.0
  0
LINE
  5
105
100
AcDbEntity
  8
POS-HIDDEN
370
     0
390
0
  6
DOT
 62
   214
100
AcDbLine
 10
41.816471
 20
111.129582
 30
0.0
 11
233.816471
 21
111.129582
 31
0.0
  0
LINE
  5
106
100
AcDbEntity
  8
POS-HIDDEN
370
     0
390
0
  6
DOT
 62
   214
100
AcDbLine
 10
41.816471
 20
112.254582
 30
0.0
 11
233.816471
 21
112.254582
 31
0.0
  0
LINE
  5
107
100
AcDbEntity
  8
0
370
     0
390
0
  6
Continuous
 62
   174
100
AcDbLine
 10
82.636891
 20
108.286072
 30
0.0
 11
82.636891
 21
99.286072
 31
0.0
  0
LINE
  5
108
100
AcDbEntity
  8
0
370
     0
390
0
  6
Continuous
 62
   174
100
AcDbLine
 10
82.636891
 20
99.286072
 30
0.0
 11
-1.363109
 21
99.286072
 31
0.0
  0
LINE
  5
109
100
AcDbEntity
  8
0
370
     0
390
0
  6
Continuous
 62
   174
100
AcDbLine
 10
-1.363109
 20
99.286072
 30
0.0
 11
-1.363109
 21
117.286072
 31
0.0
  0
LINE
  5
10A
100
AcDbEntity
  8
0
370
     0
390
0
  6
Continuous
 62
   174
100
AcDbLine
 10
-1.363109
 20
117.286072
 30
0.0
 11
118.636891
 21
117.286072
 31
0.0
  0
LINE
  5
10B
100
AcDbEntity
  8
0
370
     0
390
0
  6
Continuous
 62
   174
100
AcDbLine
 10
118.636891
 20
117.286072
 30
0.0
 11
118.636891
 21
108.286072
 31
0.0
  0
LINE
  5
10C
100
AcDbEntity
  8
0
370
     0
390
0
  6
Continuous
 62
   174
100
AcDbLine
 10
118.636891
 20
108.286072
 30
0.0
 11
82.636891
 21
108.286072
 31
0.0
  0
LINE
  5
10D
100
AcDbEntity
  8
0
370
     0
390
0
  6
Continuous
 62
   174
100
AcDbLine
 10
82.636891
 20
108.286072
 30
0.0
 11
82.636891
 21
108.286072
 31
0.0
  0
LINE
  5
10E
100
AcDbEntity
  8
0
370
     0
390
0
  6
Continuous
 62
   251
100
AcDbLine
 10
118.636891
 20
108.286072
 30
0.0
 11
82.636891
 21
108.286072
 31
0.0
  0
LINE
  5
10F
100
AcDbEntity
  8
0
370
     0
390
0
  6
Continuous
 62
   174
100
AcDbLine
 10
415.489257
 20
119.818691
 30
0.0
 11
415.489257
 21
119.818691
 31
0.0
  0
LINE
  5
110
100
AcDbEntity
  8
0
370
     0
390
0
  6
Continuous
 62
   174
100
AcDbLine
 10
417.636891
 20
99.286072
 30
0.0
 11
501.636891
 21
99.286072
 31
0.0
  0
LINE
  5
111
100
AcDbEntity
  8
0
370
     0
390
0
  6
Continuous
 62
   174
100
AcDbLine
 10
501.636891
 20
99.286072
 30
0.0
 11
501.636891
 21
117.286072
 31
0.0
  0
LINE
  5
112
100
AcDbEntity
  8
0
370
     0
390
0
  6
Continuous
 62
   174
100
AcDbLine
 10
501.636891
 20
117.286072
 30
0.0
 11
340.636891
 21
117.286072
 31
0.0
  0
LINE
  5
113
100
AcDbEntity
  8
0
370
     0
390
0
  6
Continuous
 62
   174
100
AcDbLine
 10
340.636891
 20
117.286072
 30
0.0
 11
340.636891
 21
108.286072
 31
0.0
  0
LINE
  5
114
100
AcDbEntity
  8
0
370
     0
390
0
  6
Continuous
 62
   174
100
AcDbLine
 10
340.636891
 20
108.286072
 30
0.0
 11
417.636891
 21
108.286072
 31
0.0
  0
INSERT
  5
130
100
AcDbEntity
  8
0
370
     0
390
0
  6
Continuous
 62
   174
100
AcDbBlockReference
  2
hanging position
 10
518.089756
 20
112.22586
 30
0.0
  0
INSERT
  5
131
100
AcDbEntity
  8
0
370
     0
390
0
  6
Continuous
 62
   174
100
AcDbBlockReference
  2
hanging position
 10
490.122181
 20
-237.708928
 30
0.0
  0
INSERT
  5
132
100
AcDbEntity
  8
0
370
     0
390
0
  6
Continuous
 62
   174
100
AcDbBlockReference
  2
hanging position
 10
490.122181
 20
-118.108928
 30
0.0
  0
LINE
  5
133
100
AcDbEntity
  8
0
370
     0
390
0
  6
Continuous
 62
   251
100
AcDbLine
 10
397.643751
 20
-51.215258
 30
0.0
 11
438.636891
 21
-51.215258
 31
0.0
  0
HATCH
  5
134
100
AcDbEntity
  8
0
370
     0
390
0
  6
Continuous
 62
    94
100
AcDbHatch
 10
0.0
 20
0.0
 30
0.0
210
0.0
220
0.0
230
1.0
  2
BRICK_STONE
 70
     0
 71
     0
 91
        1
 92
        1
 93
        6
 72
     1
 10
-1.3631094190215549
 20
117.28607249716354
 11
118.63689058097845
 21
117.28607249716354
 72
     1
 10
118.63689058097845
 20
117.28607249716354
 11
118.63689058097845
 21
108.28607249716354
 72
     1
 10
118.63689058097845
 20
108.28607249716354
 11
82.636890580978445
 21
108.28607249716354
 72
     1
 10
82.636890580978445
 20
108.28607249716354
 11
82.636890580978445
 21
99.286072497163545
 72
     1
 10
82.636890580978445
 20
99.286072497163545
 11
-1.3631094190215549
 21
99.286072497163545
 72
     1
 10
-1.3631094190215549
 20
99.286072497163545
 11
-1.3631094190215549
 21
117.28607249716354
 97
        0
 75
     0
 76
     1
 52
0.0
 41
12.0
 77
     0
 78
     8
 53
0.0
 43
0.0
 44
0.0
 45
0.0
 46
3.96
 79
     0
 53
90.0
 43
10.8
 44
0.0
 45
-6.0
 46
3.9600000000000009
 79
     2
 49
3.96
 49
-3.96
 53
90.0
 43
9.6
 44
0.0
 45
-6.0
 46
3.9600000000000009
 79
     2
 49
3.96
 49
-3.96
 53
0.0
 43
10.8
 44
0.66
 45
6.0
 46
3.96
 79
     2
 49
-10.8
 49
1.2
 53
0.0
 43
10.8
 44
1.32
 45
6.0
 46
3.96
 79
     2
 49
-10.8
 49
1.2
 53
0.0
 43
10.8
 44
1.98
 45
6.0
 46
3.96
 79
     2
 49
-10.8
 49
1.2
 53
0.0
 43
10.8
 44
2.64
 45
6.0
 46
3.96
 79
     2
 49
-10.8
 49
1.2
 53
0.0
 43
10.8
 44
3.3
 45
6.0
 46
3.96
 79
     2
 49
-10.8
 49
1.2
 98
        1
 10
0.0
 20
0.0
  0
HATCH
  5
135
100
AcDbEntity
  8
0
370
     0
390
0
  6
Continuous
 62
    94
100
AcDbHatch
 10
0.0
 20
0.0
 30
0.0
210
0.0
220
0.0
230
1.0
  2
BRICK_STONE
 70
     0
 71
     0
 91
        1
 92
        1
 93
        8
 72
     1
 10
417.63689058097845
 20
108.28607249716356
 11
417.63689058097845
 21
99.286072497163559
 72
     1
 10
417.63689058097845
 20
99.286072497163559
 11
417.6368905809785
 21
99.286072497163559
 72
     1
 10
417.6368905809785
 20
99.286072497163559
 11
501.6368905809785
 21
99.286072497163559
 72
     1
 10
501.6368905809785
 20
99.286072497163559
 11
501.6368905809785
 21
117.28607249716354
 72
     1
 10
501.6368905809785
 20
117.28607249716354
 11
340.6368905809785
 21
117.28607249716354
 72
     1
 10
340.6368905809785
 20
117.28607249716354
 11
340.6368905809785
 21
108.28607249716356
 72
     1
 10
340.6368905809785
 20
108.28607249716356
 11
417.6368905809785
 21
108.28607249716356
 72
     1
 10
417.6368905809785
 20
108.28607249716356
 11
417.63689058097845
 21
108.28607249716356
 97
        0
 75
     0
 76
     1
 52
0.0
 41
12.0
 77
     0
 78
     8
 53
0.0
 43
0.0
 44
0.0
 45
0.0
 46
3.96
 79
     0
 53
90.0
 43
10.8
 44
0.0
 45
-6.0
 46
3.9600000000000009
 79
     2
 49
3.96
 49
-3.96
 53
90.0
 43
9.6
 44
0.0
 45
-6.0
 46
3.9600000000000009
 79
     2
 49
3.96
 49
-3.96
 53
0.0
 43
10.8
 44
0.66
 45
6.0
 46
3.96
 79
     2
 49
-10.8
 49
1.2
 53
0.0
 43
10.8
 44
1.32
 45
6.0
 46
3.96
 79
     2
 49
-10.8
 49
1.2
 53
0.0
 43
10.8
 44
1.98
 45
6.0
 46
3.96
 79
     2
 49
-10.8
 49
1.2
 53
0.0
 43
10.8
 44
2.64
 45
6.0
 46
3.96
 79
     2
 49
-10.8
 49
1.2
 53
0.0
 43
10.8
 44
3.3
 45
6.0
 46
3.96
 79
     2
 49
-10.8
 49
1.2
 98
        1
 10
0.0
 20
0.0
  0
LINE
  5
136
100
AcDbEntity
  8
BORDER
370
     0
390
0
  6
Continuous
 62
   174
100
AcDbLine
 10
197.858946
 20
31.254582
 30
0.0
 11
197.858946
 21
31.254582
 31
0.0
  0
LINE
  5
137
100
AcDbEntity
  8
0
370
     0
390
0
  6
Continuous
 62
   251
100
AcDbLine
 10
124.636891
 20
-93.713928
 30
0.0
 11
334.636891
 21
-93.713928
 31
0.0
  0
LINE
  5
138
100
AcDbEntity
  8
0
370
     0
390
0
  6
Continuous
 62
   251
100
AcDbLine
 10
334.636891
 20
-93.713928
 30
0.0
 11
397.643751
 21
-51.215258
 31
0.0
  0
LINE
  5
139
100
AcDbEntity
  8
0
370
     0
390
0
  6
Continuous
 62
   251
100
AcDbLine
 10
124.636891
 20
-93.713928
 30
0.0
 11
61.630031
 21
-51.215258
 31
0.0
  0
LINE
  5
13A
100
AcDbEntity
  8
0
370
     0
390
0
  6
Continuous
 62
   251
100
AcDbLine
 10
61.630031
 20
-51.215258
 30
0.0
 11
20.636891
 21
-51.215258
 31
0.0
  0
LINE
  5
13B
100
AcDbEntity
  8
POS-HIDDEN
370
     0
390
0
  6
DOT
 62
   214
100
AcDbLine
 10
421.636891
 20
-9.583928
 30
0.0
 11
445.636891
 21
-9.583928
 31
0.0
  0
LINE
  5
13C
100
AcDbEntity
  8
POS-HIDDEN
370
     0
390
0
  6
DOT
 62
   214
100
AcDbLine
 10
421.636891
 20
-10.708928
 30
0.0
 11
445.636891
 21
-10.708928
 31
0.0
  0
LINE
  5
13D
100
AcDbEntity
  8
POS-HIDDEN
370
     0
390
0
  6
DOT
 62
   214
100
AcDbLine
 10
421.636891
 20
-11.833928
 30
0.0
 11
445.636891
 21
-11.833928
 31
0.0
  0
LINE
  5
13E
100
AcDbEntity
  8
POS-HIDDEN
370
     0
390
0
  6
DOT
 62
   214
100
AcDbLine
 10
421.636891
 20
69.379582
 30
0.0
 11
445.636891
 21
69.379582
 31
0.0
  0
LINE
  5
13F
100
AcDbEntity
  8
POS-HIDDEN
370
     0
390
0
  6
DOT
 62
   214
100
AcDbLine
 10
421.636891
 20
68.254582
 30
0.0
 11
445.636891
 21
68.254582
 31
0.0
  0
LINE
  5
140
100
AcDbEntity
  8
POS-HIDDEN
370
     0
390
0
  6
DOT
 62
   214
100
AcDbLine
 10
421.636891
 20
67.129582
 30
0.0
 11
445.636891
 21
67.129582
 31
0.0
  0
LINE
  5
141
100
AcDbEntity
  8
POS-HIDDEN
370
     0
390
0
  6
DOT
 62
   214
100
AcDbLine
 10
38.812301
 20
-9.485418
 30
0.0
 11
14.812301
 21
-9.485418
 31
0.0
  0
LINE
  5
142
100
AcDbEntity
  8
POS-HIDDEN
370
     0
390
0
  6
DOT
 62
   214
100
AcDbLine
 10
38.812301
 20
-10.610418
 30
0.0
 11
14.812301
 21
-10.610418
 31
0.0
  0
LINE
  5
143
100
AcDbEntity
  8
POS-HIDDEN
370
     0
390
0
  6
DOT
 62
   214
100
AcDbLine
 10
38.812301
 20
-11.735418
 30
0.0
 11
14.812301
 21
-11.735418
 31
0.0
  0
INSERT
  5
144
100
AcDbEntity
  8
0
370
     0
390
0
  6
Continuous
 62
   174
100
AcDbBlockReference
  2
hanging position
 10
528.176061
 20
-10.73765
 30
0.0
  0
INSERT
  5
145
100
AcDbEntity
  8
0
370
     0
390
0
  6
Continuous
 62
   174
100
AcDbBlockReference
  2
hanging position
 10
528.176061
 20
31.22586
 30
0.0
  0
INSERT
  5
146
100
AcDbEntity
  8
0
370
     0
390
0
  6
Continuous
 62
   174
100
AcDbBlockReference
  2
hanging position
 10
528.176061
 20
68.22586
 30
0.0
  0
LINE
  5
147
100
AcDbEntity
  8
0
370
     0
390
0
  6
Continuous
 62
   174
100
AcDbLine
 10
417.636891
 20
99.286072
 30
0.0
 11
417.636891
 21
108.286072
 31
0.0
  0
LINE
  5
149
100
AcDbEntity
  8
0
370
     0
390
0
  6
CENTER
 62
     1
100
AcDbLine
 10
229.121891
 20
-154.647464
 30
0.0
 11
229.121891
 21
-166.383016
 31
0.0
  0
LINE
  5
14A
100
AcDbEntity
  8
0
370
     0
390
0
  6
CENTER
 62
     1
100
AcDbLine
 10
229.121891
 20
-174.125558
 30
0.0
 11
229.121891
 21
-204.121823
 31
0.0
  0
LINE
  5
14B
100
AcDbEntity
  8
TITLE BLOCK
370
     0
390
0
  6
Continuous
 62
   174
100
AcDbLine
 10
519.492357
 20
-299.717989
 30
0.0
 11
519.492357
 21
-230.78245
 31
0.0
  0
LINE
  5
14C
100
AcDbEntity
  8
TITLE BLOCK
370
     0
390
0
  6
Continuous
 62
   174
100
AcDbLine
 10
519.492357
 20
-230.03245
 30
0.0
 11
645.492357
 21
-230.03245
 31
0.0
  0
LINE
  5
14D
100
AcDbEntity
  8
TITLE BLOCK
370
    30
390
0
  6
Continuous
 62
    14
100
AcDbLine
 10
519.492357
 20
-229.28245
 30
0.0
 11
645.492357
 21
-229.28245
 31
0.0
  0
LINE
  5
14E
100
AcDbEntity
  8
TITLE BLOCK
370
    30
390
0
  6
Continuous
 62
    14
100
AcDbLine
 10
518.742357
 20
-230.78245
 30
0.0
 11
518.742357
 21
-299.717989
 31
0.0
  0
LINE
  5
14F
100
AcDbEntity
  8
TITLE BLOCK
370
    30
390
0
  6
Continuous
 62
    14
100
AcDbLine
 10
519.492357
 20
-301.217989
 30
0.0
 11
645.492357
 21
-301.217989
 31
0.0
  0
LINE
  5
150
100
AcDbEntity
  8
TITLE BLOCK
370
     0
390
0
  6
Continuous
 62
   174
100
AcDbLine
 10
519.492357
 20
-300.467989
 30
0.0
 11
645.492357
 21
-300.467989
 31
0.0
  0
LINE
  5
151
100
AcDbEntity
  8
TITLE BLOCK
370
    30
390
0
  6
Continuous
 62
    14
100
AcDbLine
 10
646.242357
 20
-230.78245
 30
0.0
 11
646.242357
 21
-299.717989
 31
0.0
  0
LINE
  5
152
100
AcDbEntity
  8
TITLE BLOCK
370
     0
390
0
  6
Continuous
 62
   174
100
AcDbLine
 10
645.492357
 20
-230.78245
 30
0.0
 11
645.492357
 21
-299.717989
 31
0.0
  0
LINE
  5
153
100
AcDbEntity
  8
POS-HIDDEN
370
     0
390
0
  6
DOT
 62
   214
100
AcDbLine
 10
348.636891
 20
132.036072
 30
0.0
 11
108.636891
 21
132.036072
 31
0.0
  0
INSERT
  5
1A8
100
AcDbEntity
  8
0
370
     0
390
0
  6
Continuous
 62
   174
100
AcDbBlockReference
  2
centerline
 10
228.743491
 20
178.636012
 30
0.0
  0
LINE
  5
1A9
100
AcDbEntity
  8
POS-HIDDEN
370
    15
390
0
  6
DOT
 62
     7
100
AcDbLine
 10
229.636891
 20
95.114052
 30
0.0
 11
133.636891
 21
95.114052
 31
0.0
  0
LINE
  5
1AA
100
AcDbEntity
  8
POS-HIDDEN
370
    15
390
0
  6
DOT
 62
     7
100
AcDbLine
 10
229.636891
 20
96.239052
 30
0.0
 11
133.636891
 21
96.239052
 31
0.0
  0
LINE
  5
1AB
100
AcDbEntity
  8
POS-HIDDEN
370
    15
390
0
  6
DOT
 62
     7
100
AcDbLine
 10
229.636891
 20
93.989052
 30
0.0
 11
133.636891
 21
93.989052
 31
0.0
  0
LINE
  5
1AC
100
AcDbEntity
  8
POS-HIDDEN
370
    15
390
0
  6
DOT
 62
     7
100
AcDbLine
 10
229.540909
 20
95.114052
 30
0.0
 11
325.540909
 21
95.114052
 31
0.0
  0
LINE
  5
1AD
100
AcDbEntity
  8
POS-HIDDEN
370
    15
390
0
  6
DOT
 62
     7
100
AcDbLine
 10
229.540909
 20
96.239052
 30
0.0
 11
325.540909
 21
96.239052
 31
0.0
  0
LINE
  5
1AE
100
AcDbEntity
  8
POS-HIDDEN
370
    15
390
0
  6
DOT
 62
     7
100
AcDbLine
 10
229.540909
 20
93.989052
 30
0.0
 11
325.540909
 21
93.989052
 31
0.0
  0
INSERT
  5
1AF
100
AcDbEntity
  8
0
370
     0
390
0
  6
Continuous
 62
   174
100
AcDbBlockReference
  2
hanging position
 10
528.176061
 20
95.08533
 30
0.0
  0
LINE
  5
1B0
100
AcDbEntity
  8
POS-HIDDEN
370
     0
390
0
  6
DOT
 62
   214
100
AcDbLine
 10
229.631891
 20
-93.713928
 30
0.0
 11
229.631891
 21
146.286072
 31
0.0
  0
LINE
  5
1B1
100
AcDbEntity
  8
0
370
    15
390
0
  6
CENTER
 62
     1
100
AcDbLine
 10
229.631891
 20
63.569029
 30
0.0
 11
229.631891
 21
75.017194
 31
0.0
  0
LINE
  5
1B2
100
AcDbEntity
  8
POS-HIDDEN
370
    15
390
0
  6
DOT
 62
     7
100
AcDbLine
 10
121.636891
 20
68.399522
 30
0.0
 11
121.636891
 21
111.129582
 31
0.0
  0
LINE
  5
1B3
100
AcDbEntity
  8
POS-HIDDEN
370
    15
390
0
  6
DOT
 62
     7
100
AcDbLine
 10
122.761891
 20
68.399522
 30
0.0
 11
122.761891
 21
111.129582
 31
0.0
  0
LINE
  5
1B4
100
AcDbEntity
  8
POS-HIDDEN
370
    15
390
0
  6
DOT
 62
     7
100
AcDbLine
 10
120.511891
 20
68.399522
 30
0.0
 11
120.511891
 21
111.129582
 31
0.0
  0
LINE
  5
1B5
100
AcDbEntity
  8
POS-HIDDEN
370
     0
390
0
  6
DOT
 62
   214
100
AcDbLine
 10
229.436891
 20
-116.983928
 30
0.0
 11
472.516901
 21
-116.983928
 31
0.0
  0
LINE
  5
1B6
100
AcDbEntity
  8
POS-HIDDEN
370
     0
390
0
  6
DOT
 62
   214
100
AcDbLine
 10
229.636891
 20
-236.583928
 30
0.0
 11
472.516901
 21
-236.583928
 31
0.0
  0
LINE
  5
1B7
100
AcDbEntity
  8
0
370
     0
390
0
  6
DOT
 62
   214
100
AcDbLine
 10
472.516901
 20
-236.583928
 30
0.0
 11
472.516901
 21
-236.583928
 31
0.0
  0
LINE
  5
1B8
100
AcDbEntity
  8
POS-HIDDEN
370
     0
390
0
  6
DOT
 62
   214
100
AcDbLine
 10
229.636891
 20
-238.833928
 30
0.0
 11
472.516901
 21
-238.833928
 31
0.0
  0
LINE
  5
1B9
100
AcDbEntity
  8
POS-HIDDEN
370
     0
390
0
  6
DOT
 62
   214
100
AcDbLine
 10
229.436891
 20
-119.233928
 30
0.0
 11
-11.003119
 21
-119.233928
 31
0.0
  0
LINE
  5
1BA
100
AcDbEntity
  8
POS-HIDDEN
370
     0
390
0
  6
DOT
 62
   214
100
AcDbLine
 10
-11.003119
 20
-236.583928
 30
0.0
 11
229.636891
 21
-236.583928
 31
0.0
  0
LINE
  5
1BB
100
AcDbEntity
  8
POS-HIDDEN
370
     0
390
0
  6
DOT
 62
   214
100
AcDbLine
 10
229.636891
 20
-238.833928
 30
0.0
 11
-11.003119
 21
-238.833928
 31
0.0
  0
LINE
  5
1BC
100
AcDbEntity
  8
POS-HIDDEN
370
     0
390
0
  6
DOT
 62
   214
100
AcDbLine
 10
228.457291
 20
32.379582
 30
0.0
 11
423.402711
 21
32.379582
 31
0.0
  0
LINE
  5
1BD
100
AcDbEntity
  8
POS-HIDDEN
370
     0
390
0
  6
DOT
 62
   214
100
AcDbLine
 10
228.457291
 20
30.129582
 30
0.0
 11
423.402711
 21
30.129582
 31
0.0
  0
LINE
  5
1BE
100
AcDbEntity
  8
0
370
     0
390
0
  6
CENTER
 62
     1
100
AcDbLine
 10
229.631891
 20
-84.019886
 30
0.0
 11
229.631891
 21
3.43745
 31
0.0
  0
LINE
  5
1BF
100
AcDbEntity
  8
0
370
     0
390
0
  6
Continuous
 62
    94
100
AcDbLine
 10
360.212301
 20
69.379582
 30
0.0
 11
360.212301
 21
73.679872
 31
0.0
  0
LINE
  5
1C0
100
AcDbEntity
  8
0
370
     0
390
0
  6
Continuous
 62
    94
100
AcDbLine
 10
360.212301
 20
80.725253
 30
0.0
 11
360.212301
 21
91.591362
 31
0.0
  0
LINE
  5
1C1
100
AcDbEntity
  8
0
370
     0
390
0
  6
Continuous
 62
    94
100
AcDbLine
 10
362.462301
 20
69.379582
 30
0.0
 11
362.462301
 21
73.679872
 31
0.0
  0
LINE
  5
1C2
100
AcDbEntity
  8
0
370
     0
390
0
  6
Continuous
 62
    94
100
AcDbLine
 10
362.462301
 20
80.725253
 30
0.0
 11
362.462301
 21
91.591362
 31
0.0
  0
ELLIPSE
  5
1C3
100
AcDbEntity
  8
0
370
     0
390
0
  6
Continuous
 62
    94
100
AcDbEllipse
 10
325.540909
 20
95.114052
 30
0.0
 11
0.0
 21
1.125
 31
0.0
210
0.0
220
0.0
230
1.0
 40
0.444444
 41
0.0
 42
6.2831853071795862
  0
LINE
  5
1C4
100
AcDbEntity
  8
0
370
     0
390
0
  6
Continuous
 62
    94
100
AcDbLine
 10
325.540909
 20
93.989052
 30
0.0
 11
324.311891
 21
93.989052
 31
0.0
  0
LINE
  5
1C5
100
AcDbEntity
  8
0
370
     0
390
0
  6
Continuous
 62
    94
100
AcDbLine
 10
325.540909
 20
96.239052
 30
0.0
 11
324.071208
 21
96.239052
 31
0.0
  0
LINE
  5
1C6
100
AcDbEntity
  8
0
370
     0
390
0
  6
Continuous
 62
    94
100
AcDbLine
 10
315.157891
 20
96.152052
 30
0.0
 11
304.973326
 21
96.239052
 31
0.0
  0
LINE
  5
1C7
100
AcDbEntity
  8
0
370
     0
390
0
  6
Continuous
 62
    94
100
AcDbLine
 10
298.300455
 20
96.239052
 30
0.0
 11
287.159582
 21
96.239052
 31
0.0
  0
LINE
  5
1C8
100
AcDbEntity
  8
0
370
     0
390
0
  6
Continuous
 62
    94
100
AcDbLine
 10
280.1142
 20
96.239052
 30
0.0
 11
270.072853
 21
96.239052
 31
0.0
  0
LINE
  5
1C9
100
AcDbEntity
  8
0
370
     0
390
0
  6
Continuous
 62
    94
100
AcDbLine
 10
261.199749
 20
96.239052
 30
0.0
 11
251.159582
 21
96.239052
 31
0.0
  0
LINE
  5
1CA
100
AcDbEntity
  8
0
370
     0
390
0
  6
Continuous
 62
    94
100
AcDbLine
 10
244.1142
 20
96.239052
 30
0.0
 11
232.97044
 21
96.239052
 31
0.0
  0
LINE
  5
1CB
100
AcDbEntity
  8
0
370
     0
390
0
  6
Continuous
 62
    94
100
AcDbLine
 10
260.961891
 20
93.989052
 30
0.0
 11
251.159582
 21
93.989052
 31
0.0
  0
LINE
  5
1CC
100
AcDbEntity
  8
0
370
     0
390
0
  6
Continuous
 62
    94
100
AcDbLine
 10
270.311891
 20
93.989052
 30
0.0
 11
280.1142
 21
93.989052
 31
0.0
  0
LINE
  5
1CD
100
AcDbEntity
  8
0
370
     0
390
0
  6
Continuous
 62
    94
100
AcDbLine
 10
304.973326
 20
93.989052
 30
0.0
 11
314.961891
 21
93.989052
 31
0.0
  0
LINE
  5
1CE
100
AcDbEntity
  8
0
370
     0
390
0
  6
Continuous
 62
    94
100
AcDbLine
 10
298.300455
 20
93.989052
 30
0.0
 11
287.159582
 21
93.989052
 31
0.0
  0
LINE
  5
1CF
100
AcDbEntity
  8
0
370
     0
390
0
  6
Continuous
 62
    94
100
AcDbLine
 10
244.1142
 20
93.989052
 30
0.0
 11
232.97044
 21
93.989052
 31
0.0
  0
LINE
  5
1D0
100
AcDbEntity
  8
0
370
     0
390
0
  6
Continuous
 62
    94
100
AcDbLine
 10
226.297568
 20
96.239052
 30
0.0
 11
215.159582
 21
96.239052
 31
0.0
  0
LINE
  5
1D1
100
AcDbEntity
  8
0
370
     0
390
0
  6
Continuous
 62
    94
100
AcDbLine
 10
208.1142
 20
96.239052
 30
0.0
 11
198.071211
 21
96.239052
 31
0.0
  0
LINE
  5
1D2
100
AcDbEntity
  8
0
370
     0
390
0
  6
Continuous
 62
    94
100
AcDbLine
 10
208.1142
 20
93.989052
 30
0.0
 11
198.311891
 21
93.989052
 31
0.0
  0
LINE
  5
1D3
100
AcDbEntity
  8
0
370
     0
390
0
  6
Continuous
 62
    94
100
AcDbLine
 10
178.973326
 20
96.239052
 30
0.0
 11
189.198928
 21
96.239052
 31
0.0
  0
LINE
  5
1D4
100
AcDbEntity
  8
0
370
     0
390
0
  6
Continuous
 62
    94
100
AcDbLine
 10
178.973326
 20
93.989052
 30
0.0
 11
188.961891
 21
93.989052
 31
0.0
  0
LINE
  5
1D5
100
AcDbEntity
  8
0
370
     0
390
0
  6
Continuous
 62
    94
100
AcDbLine
 10
172.300455
 20
93.989052
 30
0.0
 11
162.311891
 21
93.989052
 31
0.0
  0
LINE
  5
1D6
100
AcDbEntity
  8
0
370
     0
390
0
  6
Continuous
 62
    94
100
AcDbLine
 10
172.300455
 20
96.239052
 30
0.0
 11
162.071211
 21
96.239052
 31
0.0
  0
LINE
  5
1D7
100
AcDbEntity
  8
0
370
     0
390
0
  6
Continuous
 62
    94
100
AcDbLine
 10
153.198928
 20
96.239052
 30
0.0
 11
144.071211
 21
96.239052
 31
0.0
  0
LINE
  5
1D8
100
AcDbEntity
  8
0
370
     0
390
0
  6
Continuous
 62
    94
100
AcDbLine
 10
152.961891
 20
93.989052
 30
0.0
 11
144.311891
 21
93.989052
 31
0.0
  0
LINE
  5
1D9
100
AcDbEntity
  8
0
370
     0
390
0
  6
Continuous
 62
    94
100
AcDbLine
 10
226.297568
 20
93.989052
 30
0.0
 11
215.159582
 21
93.989052
 31
0.0
  0
INSERT
  5
1DA
100
AcDbEntity
  8
0
370
     0
390
0
  6
Continuous
 62
   174
100
AcDbBlockReference
  2
hanging position
 10
121.767576
 20
127.886135
 30
0.0
  0
INSERT
  5
1DB
100
AcDbEntity
  8
0
370
     0
390
0
  6
Continuous
 62
   174
100
AcDbBlockReference
  2
hanging position
 10
361.445234
 20
127.886135
 30
0.0
  0
TEXT
  5
1DD
100
AcDbEntity
  8
0
370
     0
390
0
  6
Continuous
 62
   174
100
AcDbText
 10
277.636891
 20
-294.57168
 30
0.0
 40
4.0
  1
4'
 50
90.0
  7
Vcadd_HANDLETTER
100
AcDbText
  0
TEXT
  5
1DE
100
AcDbEntity
  8
0
370
     0
390
0
  6
Continuous
 62
   174
100
AcDbText
 10
301.636891
 20
-294.57168
 30
0.0
 40
4.0
  1
6'
 50
90.0
  7
Vcadd_HANDLETTER
100
AcDbText
  0
TEXT
  5
1DF
100
AcDbEntity
  8
0
370
     0
390
0
  6
Continuous
 62
   174
100
AcDbText
 10
325.636891
 20
-294.57168
 30
0.0
 40
4.0
  1
8'
 50
90.0
  7
Vcadd_HANDLETTER
100
AcDbText
  0
TEXT
  5
1E0
100
AcDbEntity
  8
0
370
     0
390
0
  6
Continuous
 62
   174
100
AcDbText
 10
349.636891
 20
-294.57168
 30
0.0
 40
4.0
  1
10'
 50
90.0
  7
Vcadd_HANDLETTER
100
AcDbText
  0
TEXT
  5
1E1
100
AcDbEntity
  8
0
370
     0
390
0
  6
Continuous
 62
   174
100
AcDbText
 10
373.636891
 20
-294.57168
 30
0.0
 40
4.0
  1
12'
 50
90.0
  7
Vcadd_HANDLETTER
100
AcDbText
  0
TEXT
  5
1E2
100
AcDbEntity
  8
0
370
     0
390
0
  6
Continuous
 62
   174
100
AcDbText
 10
397.636891
 20
-294.57168
 30
0.0
 40
4.0
  1
14'
 50
90.0
  7
Vcadd_HANDLETTER
100
AcDbText
  0
TEXT
  5
1E3
100
AcDbEntity
  8
0
370
     0
390
0
  6
Continuous
 62
   174
100
AcDbText
 10
421.636891
 20
-294.57168
 30
0.0
 40
4.0
  1
16'
 50
90.0
  7
Vcadd_HANDLETTER
100
AcDbText
  0
TEXT
  5
1E4
100
AcDbEntity
  8
0
370
     0
390
0
  6
Continuous
 62
   174
100
AcDbText
 10
445.636891
 20
-294.57168
 30
0.0
 40
4.0
  1
18'
 50
90.0
  7
Vcadd_HANDLETTER
100
AcDbText
  0
TEXT
  5
1E5
100
AcDbEntity
  8
0
370
     0
390
0
  6
Continuous
 62
   174
100
AcDbText
 10
469.636891
 20
-294.57168
 30
0.0
 40
4.0
  1
20'
 50
90.0
  7
Vcadd_HANDLETTER
100
AcDbText
  0
TEXT
  5
1E6
100
AcDbEntity
  8
0
370
     0
390
0
  6
Continuous
 62
   174
100
AcDbText
 10
205.636891
 20
-294.57168
 30
0.0
 40
4.0
  1
2'
 50
270.0
 41
-1.0
  7
Vcadd_HANDLETTER
100
AcDbText
  0
TEXT
  5
1E7
100
AcDbEntity
  8
0
370
     0
390
0
  6
Continuous
 62
   174
100
AcDbText
 10
181.636891
 20
-294.57168
 30
0.0
 40
4.0
  1
4'
 50
270.0
 41
-1.0
  7
Vcadd_HANDLETTER
100
AcDbText
  0
TEXT
  5
1E8
100
AcDbEntity
  8
0
370
     0
390
0
  6
Continuous
 62
   174
100
AcDbText
 10
157.636891
 20
-294.57168
 30
0.0
 40
4.0
  1
6'
 50
270.0
 41
-1.0
  7
Vcadd_HANDLETTER
100
AcDbText
  0
TEXT
  5
1E9
100
AcDbEntity
  8
0
370
     0
390
0
  6
Continuous
 62
   174
100
AcDbText
 10
133.636891
 20
-294.57168
 30
0.0
 40
4.0
  1
8'
 50
270.0
 41
-1.0
  7
Vcadd_HANDLETTER
100
AcDbText
  0
TEXT
  5
1EA
100
AcDbEntity
  8
0
370
     0
390
0
  6
Continuous
 62
   174
100
AcDbText
 10
109.636891
 20
-294.57168
 30
0.0
 40
4.0
  1
10'
 50
270.0
 41
-1.0
  7
Vcadd_HANDLETTER
100
AcDbText
  0
TEXT
  5
1EB
100
AcDbEntity
  8
0
370
     0
390
0
  6
Continuous
 62
   174
100
AcDbText
 10
85.636891
 20
-294.57168
 30
0.0
 40
4.0
  1
12'
 50
270.0
 41
-1.0
  7
Vcadd_HANDLETTER
100
AcDbText
  0
TEXT
  5
1EC
100
AcDbEntity
  8
0
370
     0
390
0
  6
Continuous
 62
   174
100
AcDbText
 10
61.636891
 20
-294.57168
 30
0.0
 40
4.0
  1
14'
 50
270.0
 41
-1.0
  7
Vcadd_HANDLETTER
100
AcDbText
  0
TEXT
  5
1ED
100
AcDbEntity
  8
0
370
     0
390
0
  6
Continuous
 62
   174
100
AcDbText
 10
37.636891
 20
-294.57168
 30
0.0
 40
4.0
  1
16'
 50
270.0
 41
-1.0
  7
Vcadd_HANDLETTER
100
AcDbText
  0
TEXT
  5
1EE
100
AcDbEntity
  8
0
370
     0
390
0
  6
Continuous
 62
   174
100
AcDbText
 10
253.636891
 20
-294.57168
 30
0.0
 40
4.0
  1
2'
 50
90.0
  7
Vcadd_HANDLETTER
100
AcDbText
  0
TEXT
  5
1EF
100
AcDbEntity
  8
0
370
     0
390
0
  6
Continuous
 62
   174
100
AcDbText
 10
550.454661
 20
-27.033326
 30
0.0
 40
4.0
  1
2'
 50
360.0
  7
Vcadd_HANDLETTER
100
AcDbText
  0
TEXT
  5
1F0
100
AcDbEntity
  8
0
370
     0
390
0
  6
Continuous
 62
   174
100
AcDbText
 10
550.454661
 20
-3.033326
 30
0.0
 40
4.0
  1
4'
 50
360.0
  7
Vcadd_HANDLETTER
100
AcDbText
  0
TEXT
  5
1F1
100
AcDbEntity
  8
0
370
     0
390
0
  6
Continuous
 62
   174
100
AcDbText
 10
550.454661
 20
20.966674
 30
0.0
 40
4.0
  1
6'
 50
360.0
  7
Vcadd_HANDLETTER
100
AcDbText
  0
TEXT
  5
1F2
100
AcDbEntity
  8
0
370
     0
390
0
  6
Continuous
 62
   174
100
AcDbText
 10
550.454661
 20
44.966674
 30
0.0
 40
4.0
  1
8'
 50
360.0
  7
Vcadd_HANDLETTER
100
AcDbText
  0
TEXT
  5
1F3
100
AcDbEntity
  8
0
370
     0
390
0
  6
Continuous
 62
   174
100
AcDbText
 10
550.454661
 20
68.966674
 30
0.0
 40
4.0
  1
10'
 50
360.0
  7
Vcadd_HANDLETTER
100
AcDbText
  0
TEXT
  5
1F4
100
AcDbEntity
  8
0
370
     0
390
0
  6
Continuous
 62
   174
100
AcDbText
 10
550.454661
 20
92.966674
 30
0.0
 40
4.0
  1
12'
 50
360.0
  7
Vcadd_HANDLETTER
100
AcDbText
  0
TEXT
  5
1F5
100
AcDbEntity
  8
0
370
     0
390
0
  6
Continuous
 62
   174
100
AcDbText
 10
550.454661
 20
116.966674
 30
0.0
 40
4.0
  1
14'
 50
360.0
  7
Vcadd_HANDLETTER
100
AcDbText
  0
TEXT
  5
1F6
100
AcDbEntity
  8
0
370
     0
390
0
  6
Continuous
 62
   174
100
AcDbText
 10
550.454661
 20
140.966674
 30
0.0
 40
4.0
  1
16'
 50
360.0
  7
Vcadd_HANDLETTER
100
AcDbText
  0
TEXT
  5
1F7
100
AcDbEntity
  8
0
370
     0
390
0
  6
Continuous
 62
   174
100
AcDbText
 10
550.454661
 20
164.966674
 30
0.0
 40
4.0
  1
18'
 50
360.0
  7
Vcadd_HANDLETTER
100
AcDbText
  0
TEXT
  5
1F8
100
AcDbEntity
  8
0
370
     0
390
0
  6
Continuous
 62
   174
100
AcDbText
 10
550.454661
 20
188.966674
 30
0.0
 40
4.0
  1
20'
 50
360.0
  7
Vcadd_HANDLETTER
100
AcDbText
  0
TEXT
  5
1F9
100
AcDbEntity
  8
TITLE BLOCK
370
     0
390
0
  6
Continuous
 62
   174
100
AcDbText
 10
608.254314
 20
-236.000219
 30
0.0
 40
2.0
  1
Onstage Electrics
  7
Vcadd_HANDLETTER
 72
     2
 11
643.988312
 21
-236.000219
 31
0.0
100
AcDbText
  0
TEXT
  5
1FA
100
AcDbEntity
  8
TITLE BLOCK
370
     0
390
0
  6
Continuous
 62
   174
100
AcDbText
 10
603.816021
 20
-240.000219
 30
0.0
 40
2.0
  1
and Front of House
  7
Vcadd_HANDLETTER
 72
     2
 11
643.988312
 21
-240.000219
 31
0.0
100
AcDbText
  0
TEXT
  5
1FB
100
AcDbEntity
  8
TITLE BLOCK
370
     0
390
0
  6
Continuous
 62
   174
100
AcDbText
 10
520.988312
 20
-272.913355
 30
0.0
 40
2.0
  1
ArcLight Theatre
  7
Vcadd_HANDLETTER
100
AcDbText
  0
TEXT
  5
1FC
100
AcDbEntity
  8
TITLE BLOCK
370
     0
390
0
  6
Continuous
 62
   174
100
AcDbText
 10
520.988312
 20
-276.913355
 30
0.0
 40
2.0
  1
152 West 71st St.
  7
Vcadd_HANDLETTER
100
AcDbText
  0
TEXT
  5
1FD
100
AcDbEntity
  8
TITLE BLOCK
370
     0
390
0
  6
Continuous
 62
   174
100
AcDbText
 10
520.988312
 20
-280.913355
 30
0.0
 40
2.0
  1
New York, New York
  7
Vcadd_HANDLETTER
100
AcDbText
  0
TEXT
  5
1FE
100
AcDbEntity
  8
TITLE BLOCK
370
     0
390
0
  6
Continuous
 62
   174
100
AcDbText
 10
520.988312
 20
-284.913355
 30
0.0
 40
2.0
  1
October 11-14, 2001
  7
Vcadd_HANDLETTER
100
AcDbText
  0
TEXT
  5
1FF
100
AcDbEntity
  8
TITLE BLOCK
370
     0
390
0
  6
Continuous
 62
   174
100
AcDbText
 10
520.988312
 20
-298.250219
 30
0.0
 40
2.5
  1
Plate #1 of 2
  7
Vcadd_HANDLETTER
100
AcDbText
  0
TEXT
  5
200
100
AcDbEntity
  8
0
370
     0
390
0
  6
Continuous
 62
   174
100
AcDbText
 10
515.947601
 20
114.64051
 30
0.0
 40
2.0
  1
#4
  7
Vcadd_HANDLETTER
 72
     1
 11
518.089756
 21
114.64051
 31
0.0
100
AcDbText
  0
TEXT
  5
201
100
AcDbEntity
  8
0
370
     0
390
0
  6
Continuous
 62
   174
100
AcDbText
 10
511.041853
 20
110.64051
 30
0.0
 40
2.0
  1
Electric
  7
Vcadd_HANDLETTER
 72
     1
 11
518.089756
 21
110.64051
 31
0.0
100
AcDbText
  0
TEXT
  5
202
100
AcDbEntity
  8
0
370
     0
390
0
  6
Continuous
 62
   174
100
AcDbText
 10
487.609123
 20
-235.627269
 30
0.0
 40
2.5
  1
#2
  7
Vcadd_HANDLETTER
 72
     1
 11
490.122181
 21
-235.627269
 31
0.0
100
AcDbText
  0
TEXT
  5
203
100
AcDbEntity
  8
0
370
     0
390
0
  6
Continuous
 62
   174
100
AcDbText
 10
484.973726
 20
-240.627269
 30
0.0
 40
2.5
  1
FOH
  7
Vcadd_HANDLETTER
 72
     1
 11
490.122181
 21
-240.627269
 31
0.0
100
AcDbText
  0
TEXT
  5
204
100
AcDbEntity
  8
0
370
     0
390
0
  6
Continuous
 62
   174
100
AcDbText
 10
488.272625
 20
-116.027269
 30
0.0
 40
2.5
  1
#1
  7
Vcadd_HANDLETTER
 72
     1
 11
490.122181
 21
-116.027269
 31
0.0
100
AcDbText
  0
TEXT
  5
205
100
AcDbEntity
  8
0
370
     0
390
0
  6
Continuous
 62
   174
100
AcDbText
 10
484.973726
 20
-121.027269
 30
0.0
 40
2.5
  1
FOH
  7
Vcadd_HANDLETTER
 72
     1
 11
490.122181
 21
-121.027269
 31
0.0
100
AcDbText
  0
TEXT
  5
206
100
AcDbEntity
  8
0
370
     0
390
0
  6
Continuous
 62
   174
100
AcDbText
 10
526.696416
 20
-8.323
 30
0.0
 40
2.0
  1
#1
  7
Vcadd_HANDLETTER
 72
     1
 11
528.176061
 21
-8.323
 31
0.0
100
AcDbText
  0
TEXT
  5
207
100
AcDbEntity
  8
0
370
     0
390
0
  6
Continuous
 62
   174
100
AcDbText
 10
521.128157
 20
-12.323
 30
0.0
 40
2.0
  1
Electric
  7
Vcadd_HANDLETTER
 72
     1
 11
528.176061
 21
-12.323
 31
0.0
100
AcDbText
  0
TEXT
  5
208
100
AcDbEntity
  8
0
370
     0
390
0
  6
Continuous
 62
   174
100
AcDbText
 10
526.165614
 20
33.64051
 30
0.0
 40
2.0
  1
#2
  7
Vcadd_HANDLETTER
 72
     1
 11
528.176061
 21
33.64051
 31
0.0
100
AcDbText
  0
TEXT
  5
209
100
AcDbEntity
  8
0
370
     0
390
0
  6
Continuous
 62
   174
100
AcDbText
 10
521.128157
 20
29.64051
 30
0.0
 40
2.0
  1
Electric
  7
Vcadd_HANDLETTER
 72
     1
 11
528.176061
 21
29.64051
 31
0.0
100
AcDbText
  0
TEXT
  5
20A
100
AcDbEntity
  8
0
370
     0
390
0
  6
Continuous
 62
   174
100
AcDbText
 10
526.088512
 20
70.64051
 30
0.0
 40
2.0
  1
#3
  7
Vcadd_HANDLETTER
 72
     1
 11
528.176061
 21
70.64051
 31
0.0
100
AcDbText
  0
TEXT
  5
20B
100
AcDbEntity
  8
0
370
     0
390
0
  6
Continuous
 62
   174
100
AcDbText
 10
521.128157
 20
66.64051
 30
0.0
 40
2.0
  1
Electric
  7
Vcadd_HANDLETTER
 72
     1
 11
528.176061
 21
66.64051
 31
0.0
100
AcDbText
  0
TEXT
  5
20C
100
AcDbEntity
  8
0
370
     0
390
0
  6
Continuous
 62
   174
100
AcDbText
 10
524.514263
 20
97.49998
 30
0.0
 40
2.0
  1
#3A
  7
Vcadd_HANDLETTER
 72
     1
 11
528.176061
 21
97.49998
 31
0.0
100
AcDbText
  0
TEXT
  5
20D
100
AcDbEntity
  8
0
370
     0
390
0
  6
Continuous
 62
   174
100
AcDbText
 10
521.128157
 20
93.49998
 30
0.0
 40
2.0
  1
Electric
  7
Vcadd_HANDLETTER
 72
     1
 11
528.176061
 21
93.49998
 31
0.0
100
AcDbText
  0
TEXT
  5
20E
100
AcDbEntity
  8
0
370
     0
390
0
  6
Continuous
 62
   174
100
AcDbText
 10
116.556259
 20
127.965457
 30
0.0
 40
2.5
  1
Pipe
  7
Vcadd_HANDLETTER
 72
     1
 11
121.767576
 21
127.965457
 31
0.0
100
AcDbText
  0
TEXT
  5
20F
100
AcDbEntity
  8
0
370
     0
390
0
  6
Continuous
 62
   174
100
AcDbText
 10
120.178975
 20
122.965457
 30
0.0
 40
2.5
  1
B
  7
Vcadd_HANDLETTER
 72
     1
 11
121.767576
 21
122.965457
 31
0.0
100
AcDbText
  0
TEXT
  5
210
100
AcDbEntity
  8
0
370
     0
390
0
  6
Continuous
 62
   174
100
AcDbText
 10
356.233917
 20
127.965457
 30
0.0
 40
2.5
  1
Pipe
  7
Vcadd_HANDLETTER
 72
     1
 11
361.445234
 21
127.965457
 31
0.0
100
AcDbText
  0
TEXT
  5
211
100
AcDbEntity
  8
0
370
     0
390
0
  6
Continuous
 62
   174
100
AcDbText
 10
359.693048
 20
122.965457
 30
0.0
 40
2.5
  1
A
  7
Vcadd_HANDLETTER
 72
     1
 11
361.445234
 21
122.965457
 31
0.0
100
AcDbText
  0
TEXT
  5
212
100
AcDbEntity
  8
0
370
     0
390
0
  6
Continuous
 62
   174
100
AcDbText
 10
-10.363109
 20
-294.57168
 30
0.0
 40
4.0
  1
20'
 50
270.0
 41
-1.0
  7
Vcadd_HANDLETTER
100
AcDbText
  0
TEXT
  5
213
100
AcDbEntity
  8
0
370
     0
390
0
  6
Continuous
 62
   174
100
AcDbText
 10
13.636891
 20
-294.57168
 30
0.0
 40
4.0
  1
18'
 50
270.0
 41
-1.0
  7
Vcadd_HANDLETTER
100
AcDbText
  0
LINE
  5
214
100
AcDbEntity
  8
0
370
     0
390
0
  6
Continuous
 62
   174
100
AcDbLine
 10
541.454661
 20
-51.033326
 30
0.0
 11
541.454661
 21
188.966674
 31
0.0
  0
LINE
  5
215
100
AcDbEntity
  8
0
370
     0
390
0
  6
Continuous
 62
    94
100
AcDbLine
 10
362.462301
 20
98.636743
 30
0.0
 11
362.462301
 21
108.286072
 31
0.0
  0
LINE
  5
216
100
AcDbEntity
  8
0
370
     0
390
0
  6
Continuous
 62
    94
100
AcDbLine
 10
360.212301
 20
98.636743
 30
0.0
 11
360.212301
 21
108.286072
 31
0.0
  0
INSERT
  5
220
100
AcDbEntity
  8
0
370
     0
390
0
  6
Continuous
 62
   174
100
AcDbBlockReference
  2
DRAPE
 10
307.636891
 20
106.254583
 30
0.0
 50
90.0
  0
INSERT
  5
221
100
AcDbEntity
  8
0
370
     0
390
0
  6
Continuous
 62
   174
100
AcDbBlockReference
  2
DRAPE
 10
319.636891
 20
106.254583
 30
0.0
 50
90.0
  0
INSERT
  5
222
100
AcDbEntity
  8
0
370
     0
390
0
  6
Continuous
 62
   174
100
AcDbBlockReference
  2
DRAPE
 10
331.636891
 20
106.254583
 30
0.0
 50
90.0
  0
INSERT
  5
223
100
AcDbEntity
  8
0
370
     0
390
0
  6
Continuous
 62
   174
100
AcDbBlockReference
  2
DRAPE
 10
127.636891
 20
106.254582
 30
0.0
 50
90.0
  0
INSERT
  5
224
100
AcDbEntity
  8
0
370
     0
390
0
  6
Continuous
 62
   174
100
AcDbBlockReference
  2
DRAPE
 10
235.636891
 20
106.254583
 30
0.0
 50
90.0
  0
INSERT
  5
225
100
AcDbEntity
  8
0
370
     0
390
0
  6
Continuous
 62
   174
100
AcDbBlockReference
  2
DRAPE
 10
247.636891
 20
106.254583
 30
0.0
 50
90.0
  0
INSERT
  5
226
100
AcDbEntity
  8
0
370
     0
390
0
  6
Continuous
 62
   174
100
AcDbBlockReference
  2
DRAPE
 10
259.636891
 20
106.254583
 30
0.0
 50
90.0
  0
INSERT
  5
227
100
AcDbEntity
  8
0
370
     0
390
0
  6
Continuous
 62
   174
100
AcDbBlockReference
  2
DRAPE
 10
271.636891
 20
106.254583
 30
0.0
 50
90.0
  0
INSERT
  5
228
100
AcDbEntity
  8
0
370
     0
390
0
  6
Continuous
 62
   174
100
AcDbBlockReference
  2
DRAPE
 10
283.636891
 20
106.254583
 30
0.0
 50
90.0
  0
INSERT
  5
229
100
AcDbEntity
  8
0
370
     0
390
0
  6
Continuous
 62
   174
100
AcDbBlockReference
  2
DRAPE
 10
151.636891
 20
106.254582
 30
0.0
 50
90.0
  0
INSERT
  5
22A
100
AcDbEntity
  8
0
370
     0
390
0
  6
Continuous
 62
   174
100
AcDbBlockReference
  2
DRAPE
 10
163.636891
 20
106.254582
 30
0.0
 50
90.0
  0
INSERT
  5
22B
100
AcDbEntity
  8
0
370
     0
390
0
  6
Continuous
 62
   174
100
AcDbBlockReference
  2
DRAPE
 10
175.636891
 20
106.254582
 30
0.0
 50
90.0
  0
INSERT
  5
22C
100
AcDbEntity
  8
0
370
     0
390
0
  6
Continuous
 62
   174
100
AcDbBlockReference
  2
DRAPE
 10
187.636891
 20
106.254582
 30
0.0
 50
90.0
  0
INSERT
  5
22D
100
AcDbEntity
  8
0
370
     0
390
0
  6
Continuous
 62
   174
100
AcDbBlockReference
  2
DRAPE
 10
199.636891
 20
106.254582
 30
0.0
 50
90.0
  0
INSERT
  5
22E
100
AcDbEntity
  8
0
370
     0
390
0
  6
Continuous
 62
   174
100
AcDbBlockReference
  2
DRAPE
 10
211.636891
 20
106.254582
 30
0.0
 50
90.0
  0
INSERT
  5
22F
100
AcDbEntity
  8
0
370
     0
390
0
  6
Continuous
 62
   174
100
AcDbBlockReference
  2
DRAPE
 10
223.636891
 20
106.254582
 30
0.0
 50
90.0
  0
INSERT
  5
230
100
AcDbEntity
  8
0
370
     0
390
0
  6
Continuous
 62
   174
100
AcDbBlockReference
  2
DRAPE
 10
295.636891
 20
106.254583
 30
0.0
 50
90.0
  0
INSERT
  5
231
100
AcDbEntity
  8
0
370
     0
390
0
  6
Continuous
 62
   174
100
AcDbBlockReference
  2
DRAPE
 10
139.636891
 20
106.254582
 30
0.0
 50
90.0
  0
INSERT
  5
232
100
AcDbEntity
  8
0
370
     0
390
0
  6
Continuous
 62
   174
100
AcDbBlockReference
  2
DRAPE
 10
139.636891
 20
106.254583
 30
0.0
 50
90.0
  0
LINE
  5
233
100
AcDbEntity
  8
0
370
     0
390
0
  6
CENTER
 62
     1
100
AcDbLine
 10
229.631891
 20
145.936348
 30
0.0
 11
229.631891
 21
179.418479
 31
0.0
  0
LINE
  5
234
100
AcDbEntity
  8
0
370
     0
390
0
  6
CENTER
 62
     1
100
AcDbLine
 10
229.121891
 20
-303.57168
 30
0.0
 11
229.121891
 21
-273.710653
 31
0.0
  0
ENDSEC
  0
SECTION
  2
OBJECTS
  0
DICTIONARY
  5
19
100
AcDbDictionary
280
     0
281
     1
  3
ACAD_GROUP
350
1A
  3
ACAD_MLINESTYLE
350
1B
  3
ACAD_LAYOUT
350
1E
  3
ACAD_PLOTSETTINGS
350
22
  3
ACAD_PLOTSTYLENAME
350
1F
  3
ACAD_WIPEOUT_VARS
350
23
  0
DICTIONARY
  5
1A
102
{ACAD_REACTORS
330
19
102
}
100
AcDbDictionary
280
     0
281
     1
  0
DICTIONARY
  5
1B
102
{ACAD_REACTORS
330
19
102
}
100
AcDbDictionary
280
     0
281
     1
  3
Standard
350
1C
  0
MLINESTYLE
  5
1C
102
{ACAD_REACTORS
330
1B
102
}
100
AcDbMlineStyle
  2
Standard
 70
     0
  3

 62
     0
 51
90.0
 52
90.0
 71
     2
 49
0.5
 62
   256
  6
ByLayer
 49
-0.5
 62
   256
  6
ByLayer
  0
ACDBDICTIONARYWDFLT
  5
1F
102
{ACAD_REACTORS
330
19
102
}
100
AcDbDictionary
281
     1
  3
Normal
350
1D
100
AcDbDictionaryWithDefault
340
1D
  0
ACDBPLACEHOLDER
  5
1D
102
{ACAD_REACTORS
330
1F
102
}
  0
LAYOUT
  5
20
102
{ACAD_REACTORS
330
1E
102
}
100
AcDbPlotSettings
  1

  2

  4

  6

 40
0.0
 41
0.0
 42
0.0
 43
0.0
 44
0.0
 45
0.0
 46
0.0
 47
0.0
 48
0.0
 49
0.0
140
0.0
141
0.0
142
1.0
143
1.0
 70
  1024
 72
     0
 73
     0
 74
     0
  7

 75
     0
147
1.0
148
0.0
149
0.0
100
AcDbLayout
  1
Model
 70
     0
 71
     0
 10
0.0
 20
0.0
 11
0.0
 21
0.0
 12
0.0
 22
0.0
 32
0.0
 14
0.0
 24
0.0
 34
0.0
 15
0.0
 25
0.0
 35
0.0
146
0.0
 13
0.0
 23
0.0
 33
0.0
 16
0.0
 26
0.0
 36
0.0
 17
0.0
 27
0.0
 37
0.0
 76
     0
330
A
331
0
345
0
346
0
  0
LAYOUT
  5
21
102
{ACAD_REACTORS
330
1E
102
}
100
AcDbPlotSettings
  1

  2

  4

  6

 40
0.0
 41
0.0
 42
0.0
 43
0.0
 44
0.0
 45
0.0
 46
0.0
 47
0.0
 48
0.0
 49
0.0
140
0.0
141
0.0
142
1.0
143
1.0
 70
     0
 72
     0
 73
     0
 74
     0
  7

 75
     0
147
1.0
148
0.0
149
0.0
100
AcDbLayout
  1
Layout1
 70
     0
 71
     0
 10
0.0
 20
0.0
 11
0.0
 21
0.0
 12
0.0
 22
0.0
 32
0.0
 14
0.0
 24
0.0
 34
0.0
 15
0.0
 25
0.0
 35
0.0
146
0.0
 13
0.0
 23
0.0
 33
0.0
 16
0.0
 26
0.0
 36
0.0
 17
0.0
 27
0.0
 37
0.0
 76
     0
330
B
331
0
345
0
346
0
  0
DICTIONARY
  5
1E
102
{ACAD_REACTORS
330
19
102
}
100
AcDbDictionary
280
     0
281
     1
  3
Layout1
350
21
  3
Model
350
20
  0
DICTIONARY
  5
22
102
{ACAD_REACTORS
330
19
102
}
100
AcDbDictionary
280
     0
281
     1
  0
WIPEOUTVARIABLES
  5
23
100
AcDbWipeoutVariables
 70
     1
  0
ENDSEC
  0
EOF
