  0
SECTION
  2
HEADER
  9
$ACADVER
  1
AC1015
  9
$ACADMAINTVER
 70
     6
  9
$DWGCODEPAGE
  3
ANSI_1252
  9
$INSBASE
 10
0.0
 20
0.0
 30
0.0
  9
$EXTMIN
 10
-587.417603
 20
-810.200562
 30
0.0
  9
$EXTMAX
 10
900.590698
 20
238.171753
 30
0.0
  9
$LIMMIN
 10
0.0
 20
0.0
  9
$LIMMAX
 10
0.0
 20
0.0
  9
$ORTHOMODE
 70
     0
  9
$REGENMODE
 70
     1
  9
$FILLMODE
 70
     1
  9
$QTEXTMODE
 70
     0
  9
$MIRRTEXT
 70
     1
  9
$LTSCALE
 40
1.0
  9
$ATTMODE
 70
     1
  9
$TEXTSIZE
 40
0.2
  9
$TRACEWID
 40
0.05
  9
$TEXTSTYLE
  7
Standard
  9
$CLAYER
  8
0
  9
$CELTYPE
  6
Continuous
  9
$CECOLOR
 62
   256
  9
$CELTSCALE
 40
1.0
  9
$DISPSILH
 70
     0
  9
$DIMSCALE
 40
1.0
  9
$DIMASZ
 40
0.18
  9
$DIMEXO
 40
0.0625
  9
$DIMDLI
 40
0.38
  9
$DIMRND
 40
0.0
  9
$DIMDLE
 40
0.0
  9
$DIMEXE
 40
0.18
  9
$DIMTP
 40
0.0
  9
$DIMTM
 40
0.0
  9
$DIMTXT
 40
0.18
  9
$DIMCEN
 40
0.09
  9
$DIMTSZ
 40
0.0
  9
$DIMTOL
 70
     0
  9
$DIMLIM
 70
     0
  9
$DIMTIH
 70
     1
  9
$DIMTOH
 70
     1
  9
$DIMSE1
 70
     0
  9
$DIMSE2
 70
     0
  9
$DIMTAD
 70
     0
  9
$DIMZIN
 70
     0
  9
$DIMBLK
  1

  9
$DIMASO
 70
     1
  9
$DIMSHO
 70
     1
  9
$DIMPOST
  1

  9
$DIMAPOST
  1

  9
$DIMALT
 70
     0
  9
$DIMALTD
 70
     2
  9
$DIMALTF
 40
25.4
  9
$DIMLFAC
 40
1.0
  9
$DIMTOFL
 70
     0
  9
$DIMTVP
 40
0.0
  9
$DIMTIX
 70
     0
  9
$DIMSOXD
 70
     0
  9
$DIMSAH
 70
     0
  9
$DIMBLK1
  1

  9
$DIMBLK2
  1

  9
$DIMSTYLE
  2
Standard
  9
$DIMCLRD
 70
     0
  9
$DIMCLRE
 70
     0
  9
$DIMCLRT
 70
     0
  9
$DIMTFAC
 40
1.0
  9
$DIMGAP
 40
0.09
  9
$DIMJUST
 70
     0
  9
$DIMSD1
 70
     0
  9
$DIMSD2
 70
     0
  9
$DIMTOLJ
 70
     1
  9
$DIMTZIN
 70
     0
  9
$DIMALTZ
 70
     0
  9
$DIMALTTZ
 70
     0
  9
$DIMUPT
 70
     0
  9
$DIMDEC
 70
     4
  9
$DIMTDEC
 70
     4
  9
$DIMALTU
 70
     2
  9
$DIMALTTD
 70
     2
  9
$DIMTXSTY
  7
Standard
  9
$DIMAUNIT
 70
     0
  9
$DIMADEC
 70
     0
  9
$DIMALTRND
 40
0.0
  9
$DIMAZIN
 70
     0
  9
$DIMDSEP
 70
     0
  9
$DIMATFIT
 70
     3
  9
$DIMFRAC
 70
     0
  9
$DIMLDRBLK
  1

  9
$DIMLUNIT
 70
     2
  9
$DIMLWD
 70
     0
  9
$DIMLWE
 70
     0
  9
$DIMTMOVE
 70
     0
  9
$LUNITS
 70
     2
  9
$LUPREC
 70
     4
  9
$SKETCHINC
 40
0.1
  9
$FILLETRAD
 40
0.0
  9
$AUNITS
 70
     0
  9
$AUPREC
 70
     0
  9
$MENU
  1
acad
  9
$ELEVATION
 40
0.0
  9
$PELEVATION
 40
0.0
  9
$THICKNESS
 40
0.0
  9
$LIMCHECK
 70
     0
  9
$CHAMFERA
 40
0.0
  9
$CHAMFERB
 40
0.0
  9
$CHAMFERC
 40
0.0
  9
$CHAMFERD
 40
0.0
  9
$SKPOLY
 70
     0
  9
$TDCREATE
 40
0.000000000
  9
$TDUCREATE
 40
0.000000000
  9
$TDUPDATE
 40
0.000000000
  9
$TDUUPDATE
 40
0.000000000
  9
$TDINDWG
 40
0.0000000000
  9
$TDUSRTIMER
 40
0.0000000000
  9
$USRTIMER
 70
     1
  9
$ANGBASE
 50
0.0
  9
$ANGDIR
 70
     0
  9
$PDMODE
 70
     2
  9
$PDSIZE
 40
-1.0
  9
$PLINEWID
 40
0.0
  9
$SPLFRAME
 70
     0
  9
$SPLINETYPE
 70
     6
  9
$SPLINESEGS
 70
     8
  9
$HANDSEED
  5
3F9
  9
$SURFTAB1
 70
     6
  9
$SURFTAB2
 70
     6
  9
$SURFTYPE
 70
     6
  9
$SURFU
 70
     6
  9
$SURFV
 70
     6
  9
$UCSBASE
  2

  9
$UCSNAME
  2

  9
$UCSORG
 10
0.0
 20
0.0
 30
0.0
  9
$UCSXDIR
 10
1.0
 20
0.0
 30
0.0
  9
$UCSYDIR
 10
0.0
 20
1.0
 30
0.0
  9
$UCSORTHOREF
  2

  9
$UCSORTHOVIEW
 70
     0
  9
$UCSORGTOP
 10
0.0
 20
0.0
 30
0.0
  9
$UCSORGBOTTOM
 10
0.0
 20
0.0
 30
0.0
  9
$UCSORGLEFT
 10
0.0
 20
0.0
 30
0.0
  9
$UCSORGRIGHT
 10
0.0
 20
0.0
 30
0.0
  9
$UCSORGFRONT
 10
0.0
 20
0.0
 30
0.0
  9
$UCSORGBACK
 10
0.0
 20
0.0
 30
0.0
  9
$PUCSBASE
  2

  9
$PUCSNAME
  2

  9
$PUCSORG
 10
0.0
 20
0.0
 30
0.0
  9
$PUCSXDIR
 10
1.0
 20
0.0
 30
0.0
  9
$PUCSYDIR
 10
0.0
 20
1.0
 30
0.0
  9
$PUCSORTHOREF
  2

  9
$PUCSORTHOVIEW
 70
     0
  9
$PUCSORGTOP
 10
0.0
 20
0.0
 30
0.0
  9
$PUCSORGBOTTOM
 10
0.0
 20
0.0
 30
0.0
  9
$PUCSORGLEFT
 10
0.0
 20
0.0
 30
0.0
  9
$PUCSORGRIGHT
 10
0.0
 20
0.0
 30
0.0
  9
$PUCSORGFRONT
 10
0.0
 20
0.0
 30
0.0
  9
$PUCSORGBACK
 10
0.0
 20
0.0
 30
0.0
  9
$USERI1
 70
     0
  9
$USERI2
 70
     0
  9
$USERI3
 70
     0
  9
$USERI4
 70
     0
  9
$USERI5
 70
     0
  9
$USERR1
 40
0.0
  9
$USERR2
 40
0.0
  9
$USERR3
 40
0.0
  9
$USERR4
 40
0.0
  9
$USERR5
 40
0.0
  9
$WORLDVIEW
 70
     1
  9
$SHADEDGE
 70
     3
  9
$SHADEDIF
 70
    70
  9
$TILEMODE
 70
     1
  9
$MAXACTVP
 70
    16
  9
$PINSBASE
 10
0.0
 20
0.0
 30
0.0
  9
$PLIMCHECK
 70
     0
  9
$PEXTMIN
 10
1.000000E+20
 20
1.000000E+20
 30
1.000000E+20
  9
$PEXTMAX
 10
-1.000000E+20
 20
-1.000000E+20
 30
-1.000000E+20
  9
$PLIMMIN
 10
0.0
 20
0.0
  9
$PLIMMAX
 10
12.0
 20
9.0
  9
$UNITMODE
 70
     0
  9
$VISRETAIN
 70
     0
  9
$PLINEGEN
 70
     1
  9
$PSLTSCALE
 70
     0
  9
$TREEDEPTH
 70
  3020
  9
$CMLSTYLE
  2
Standard
  9
$CMLJUST
 70
     0
  9
$CMLSCALE
 40
1.0
  9
$PROXYGRAPHICS
 70
     0
  9
$MEASUREMENT
 70
     0
  9
$CELWEIGHT
370
     0
  9
$ENDCAPS
280
     0
  9
$JOINSTYLE
280
     0
  9
$LWDISPLAY
290
     1
  9
$INSUNITS
 70
     0
  9
$HYPERLINKBASE
  1

  9
$STYLESHEET
  1

  9
$XEDIT
290
     1
  9
$CEPSNTYPE
380
     0
  9
$PSTYLEMODE
290
     1
  9
$FINGERPRINTGUID
  2

  9
$VERSIONGUID
  2

  9
$EXTNAMES
290
     1
  9
$PSVPSCALE
 40
0.0
  0
ENDSEC
  0
SECTION
  2
CLASSES
  0
CLASS
  1
LWPOLYLINE
  2
AcDbPolyline
  3
AutoCAD 2000
 90
        0
280
     0
281
     1
  0
CLASS
  1
IMAGE
  2
AcDbRasterImage
  3
ISM
 90
      127
280
     0
281
     1
  0
CLASS
  1
OLE2FRAME
  2
AcDbOle2Frame
  3
AutoCAD 2000
 90
        0
280
     0
281
     1
  0
CLASS
  1
HATCH
  2
AcDbHatch
  3
AutoCAD 2000
 90
        0
280
     0
281
     1
  0
CLASS
  1
DICTIONARYVAR
  2
AcDbDictionaryVar
  3
AutoCAD 2000
 90
        0
280
     0
281
     0
  0
CLASS
  1
RASTERVARIABLES
  2
AcDbRasterVariables
  3
ISM
 90
        0
280
     0
281
     0
  0
CLASS
  1
IMAGEDEF
  2
AcDbRasterImageDef
  3
ISM
 90
        0
280
     0
281
     0
  0
CLASS
  1
IMAGEDEF_REACTOR
  2
AcDbRasterImageDefReactor
  3
ISM
 90
        1
280
     0
281
     0
  0
CLASS
  1
IDBUFFER
  2
AcDbIdBuffer
  3
AutoCAD 2000
 90
        0
280
     0
281
     0
  0
CLASS
  1
SPATIAL_FILTER
  2
AcDbSpatialFilter
  3
AutoCAD 2000
 90
        0
280
     0
281
     0
  0
CLASS
  1
XRECORD
  2
AcDbXrecord
  3
AutoCAD 2000
 90
        0
280
     0
281
     0
  0
CLASS
  1
SORTENTSTABLE
  2
AcDbSortentsTable
  3
AutoCAD 2000
 90
        0
280
     0
281
     0
  0
CLASS
  1
LAYER_INDEX
  2
AcDbLayerIndex
  3
AutoCAD 2000
 90
        0
280
     0
281
     0
  0
CLASS
  1
SPATIAL_INDEX
  2
AcDbSpatialIndex
  3
AutoCAD 2000
 90
        0
280
     0
281
     0
  0
CLASS
  1
OBJECT_PTR
  2
CAseDLPNTableRecord
  3
"ASE-LPNTableRecord"
 90
        1
280
     0
281
     0
  0
CLASS
  1
LAYOUT
  2
AcDbLayout
  3
AutoCAD 2000
 90
        0
280
     0
281
     0
  0
CLASS
  1
PLOTSETTINGS
  2
AcDbPlotSettings
  3
AutoCAD 2000
 90
        0
280
     0
281
     0
  0
CLASS
  1
ACDBDICTIONARYWDFLT
  2
AcDbDictionaryWithDefault
  3
AutoCAD 2000
 90
        0
280
     0
281
     0
  0
CLASS
  1
ACDBPLACEHOLDER
  2
AcDbPlaceHolder
  3
AutoCAD 2000
 90
        0
280
     0
281
     0
  0
CLASS
  1
VBA_PROJECT
  2
AcDbVbaProject
  3
acadvba
 90
        0
280
     0
281
     0
  0
CLASS
  1
WIPEOUT
  2
AcDbWipeout
  3
WipeOut|AutoCAD Express Tool|expresstools@autodesk.com
 90
      127
280
     0
281
     1
  0
CLASS
  1
WIPEOUTVARIABLES
  2
AcDbWipeoutVariables
  3
WipeOut|AutoCAD Express Tool|expresstools@autodesk.com
 90
        0
280
     0
281
     0
  0
CLASS
  1
RTEXT
  2
RText
  3
RText|AutoCAD Express Tool|expresstools@autodesk.com
 90
        0
280
     0
281
     1
  0
CLASS
  1
ARCALIGNEDTEXT
  2
AcDbArcAlignedText
  3
ATEXT|AutoCAD Express Tool|expresstools@autodesk.com
 90
        0
280
     0
281
     1
  0
ENDSEC
  0
SECTION
  2
TABLES
  0
TABLE
  2
VPORT
  5
7
100
AcDbSymbolTable
 70
     2
  0
VPORT
  5
15
100
AcDbSymbolTableRecord
100
AcDbViewportTableRecord
  2
*ACTIVE
 70
     0
 10
0.0
 20
0.0
 11
1.0
 21
1.0
 12
6.591288
 22
4.579184
 13
0.0
 23
0.0
 14
1.0
 24
1.0
 15
0.0
 25
0.0
 16
0.0
 26
0.0
 36
1.0
 17
0.0
 27
0.0
 37
0.0
 40
9.158369
 41
0.688564
 42
50.0
 43
0.0
 44
0.0
 50
0.0
 51
0.0
 71
     0
 72
   100
 73
     1
 74
     1
 75
     0
 76
     0
 77
     0
 78
     0
281
     0
 65
     0
110
0.0
120
0.0
130
0.0
111
1.0
121
0.0
131
0.0
112
0.0
122
1.0
132
0.0
345
0
346
0
 79
     0
146
0.0
  0
VPORT
  5
3F8
100
AcDbSymbolTableRecord
100
AcDbViewportTableRecord
  2
MYVPORT
 70
     0
 10
0.0
 20
0.0
 11
1.0
 21
1.0
 12
6.21
 22
9.02
 13
0.0
 23
0.0
 14
1.0
 24
1.0
 15
0.0
 25
0.0
 16
0.0
 26
0.0
 36
1.0
 17
0.0
 27
0.0
 37
0.0
 40
18.04
 41
0.688564
 42
50.0
 43
0.0
 44
0.0
 50
0.0
 51
0.0
 71
     0
 72
   100
 73
     1
 74
     1
 75
     0
 76
     0
 77
     0
 78
     0
281
     0
 65
     0
110
0.0
120
0.0
130
0.0
111
1.0
121
0.0
131
0.0
112
0.0
122
1.0
132
0.0
345
0
346
0
 79
     0
146
0.0
  0
ENDTAB
  0
TABLE
  2
LTYPE
  5
4
100
AcDbSymbolTable
 70
     6
  0
LTYPE
  5
11
100
AcDbSymbolTableRecord
100
AcDbLinetypeTableRecord
  2
ByBlock
 70
    64
  3

 72
    65
 73
     0
 40
0.0
  0
LTYPE
  5
12
100
AcDbSymbolTableRecord
100
AcDbLinetypeTableRecord
  2
ByLayer
 70
    64
  3

 72
    65
 73
     0
 40
0.0
  0
LTYPE
  5
13
100
AcDbSymbolTableRecord
100
AcDbLinetypeTableRecord
  2
Continuous
 70
    64
  3
Solid line
 72
    65
 73
     0
 40
0.0
  0
LTYPE
  5
B5
100
AcDbSymbolTableRecord
100
AcDbLinetypeTableRecord
  2
CENTER
 70
    64
  3
Visual CADD Translation
 72
    65
 73
     4
 40
1.265
 49
0.115
 74
     0
 49
-0.07
 74
     0
 49
1.01
 74
     0
 49
-0.07
 74
     0
  0
LTYPE
  5
24F
100
AcDbSymbolTableRecord
100
AcDbLinetypeTableRecord
  2
DASHED
 70
    64
  3
Visual CADD Translation
 72
    65
 73
     2
 40
0.32
 49
0.24
 74
     0
 49
-0.08
 74
     0
  0
LTYPE
  5
2D1
100
AcDbSymbolTableRecord
100
AcDbLinetypeTableRecord
  2
DOT
 70
    64
  3
Visual CADD Translation
 72
    65
 73
     2
 40
0.1
 49
0.0
 74
     0
 49
-0.1
 74
     0
  0
ENDTAB
  0
TABLE
  2
LAYER
  5
2
100
AcDbSymbolTable
 70
    18
  0
LAYER
  5
14
100
AcDbSymbolTableRecord
100
AcDbLayerTableRecord
  2
0
 70
     0
 62
     7
  6
Continuous
290
     1
370
    -3
390
1D
  0
LAYER
  5
24
100
AcDbSymbolTableRecord
100
AcDbLayerTableRecord
  2
POS-HIDDEN
 70
     0
 62
     7
  6
Continuous
290
     1
370
    -3
390
1D
  0
LAYER
  5
25
100
AcDbSymbolTableRecord
100
AcDbLayerTableRecord
  2
POS-REVEAL
 70
     0
 62
     7
  6
Continuous
290
     1
370
    -3
390
1D
  0
LAYER
  5
26
100
AcDbSymbolTableRecord
100
AcDbLayerTableRecord
  2
TITLE BLOCK
 70
     0
 62
     7
  6
Continuous
290
     1
370
    -3
390
1D
  0
LAYER
  5
27
100
AcDbSymbolTableRecord
100
AcDbLayerTableRecord
  2
LEGEND
 70
     0
 62
     7
  6
Continuous
290
     1
370
    -3
390
1D
  0
LAYER
  5
28
100
AcDbSymbolTableRecord
100
AcDbLayerTableRecord
  2
BORDER
 70
     0
 62
     7
  6
Continuous
290
     1
370
    -3
390
1D
  0
LAYER
  5
29
100
AcDbSymbolTableRecord
100
AcDbLayerTableRecord
  2
House Plot LAMPS
 70
     0
 62
     7
  6
Continuous
290
     1
370
    -3
390
1D
  0
LAYER
  5
2A
100
AcDbSymbolTableRecord
100
AcDbLayerTableRecord
  2
SCRATCH
 70
     0
 62
     7
  6
Continuous
290
     1
370
    -3
390
1D
  0
LAYER
  5
2B
100
AcDbSymbolTableRecord
100
AcDbLayerTableRecord
  2
HOUSE CIRCUITS
 70
     0
 62
     7
  6
Continuous
290
     1
370
    -3
390
1D
  0
LAYER
  5
2C
100
AcDbSymbolTableRecord
100
AcDbLayerTableRecord
  2
Hash Marks
 70
     0
 62
     7
  6
Continuous
290
     1
370
    -3
390
1D
  0
LAYER
  5
2D
100
AcDbSymbolTableRecord
100
AcDbLayerTableRecord
  2
Boomz
 70
     0
 62
     7
  6
Continuous
290
     1
370
    -3
390
1D
  0
LAYER
  5
2E
100
AcDbSymbolTableRecord
100
AcDbLayerTableRecord
  2
Area Centers
 70
     0
 62
     7
  6
Continuous
290
     1
370
    -3
390
1D
  0
LAYER
  5
2F
100
AcDbSymbolTableRecord
100
AcDbLayerTableRecord
  2
Box Booms
 70
     0
 62
     7
  6
Continuous
290
     1
370
    -3
390
1D
  0
LAYER
  5
30
100
AcDbSymbolTableRecord
100
AcDbLayerTableRecord
  2
Color Changes
 70
     0
 62
     7
  6
Continuous
290
     1
370
    -3
390
1D
  0
LAYER
  5
31
100
AcDbSymbolTableRecord
100
AcDbLayerTableRecord
  2
Hidden Clr Chg
 70
     0
 62
     7
  6
Continuous
290
     1
370
    -3
390
1D
  0
LAYER
  5
32
100
AcDbSymbolTableRecord
100
AcDbLayerTableRecord
  2
Grid
 70
     0
 62
     7
  6
Continuous
290
     1
370
    -3
390
1D
  0
LAYER
  5
33
100
AcDbSymbolTableRecord
100
AcDbLayerTableRecord
  2
.25  inch
 70
     0
 62
     7
  6
Continuous
290
     1
370
    -3
390
1D
  0
LAYER
  5
34
100
AcDbSymbolTableRecord
100
AcDbLayerTableRecord
  2
.1875 inch
 70
     0
 62
     7
  6
Continuous
290
     1
370
    -3
390
1D
  0
ENDTAB
  0
TABLE
  2
STYLE
  5
3
100
AcDbSymbolTable
 70
     3
  0
STYLE
  5
17
100
AcDbSymbolTableRecord
100
AcDbTextStyleTableRecord
  2
Standard
 70
     0
 40
0.0
 41
1.0
 50
0.0
 71
     0
 42
0.0
  3
txt
  4

  0
STYLE
  5
3C
100
AcDbSymbolTableRecord
100
AcDbTextStyleTableRecord
  2
Vcadd_ENGINEER
 70
     0
 40
0.0
 41
1.0
 50
0.0
 71
     0
 42
0.0
  3
ENGINEER
  4

  0
STYLE
  5
300
100
AcDbSymbolTableRecord
100
AcDbTextStyleTableRecord
  2
Vcadd_Handletter
 70
     0
 40
0.0
 41
1.0
 50
0.0
 71
     0
 42
0.0
  3
Handletter
  4

  0
ENDTAB
  0
TABLE
  2
VIEW
  5
5
100
AcDbSymbolTable
 70
     0
  0
ENDTAB
  0
TABLE
  2
UCS
  5
6
100
AcDbSymbolTable
 70
     1
  0
UCS
  5
3F7
100
AcDbSymbolTableRecord
100
AcDbUCSTableRecord
  2
MYUCS
 70
     0
 10
0.0
 20
0.0
 30
0.0
 11
0.0
 21
1.0
 31
0.0
 12
0.0
 22
0.0
 32
1.0
 79
     0
146
0.0
  0
ENDTAB
  0
TABLE
  2
APPID
  5
8
100
AcDbSymbolTable
 70
     1
  0
APPID
  5
16
100
AcDbSymbolTableRecord
100
AcDbRegAppTableRecord
  2
ACAD
 70
     0
  0
ENDTAB
  0
TABLE
  2
DIMSTYLE
  5
9
100
AcDbSymbolTable
 70
     2
100
AcDbDimStyleTable
 71
     0
  0
DIMSTYLE
105
18
100
AcDbSymbolTableRecord
100
AcDbDimStyleTableRecord
  2
Standard
 70
     0
  3

  4

 40
1.0
 41
0.18
 42
0.0625
 43
0.38
 44
0.18
 45
0.0
 46
0.0
 47
0.0
 48
0.0
 71
     0
 72
     0
 73
     1
 74
     1
 75
     0
 76
     0
 77
     0
 78
     0
 79
     0
140
0.18
141
0.09
142
0.0
143
25.4
144
1.0
145
0.0
146
1.0
147
0.09
148
0.0
170
     0
171
     2
172
     0
173
     0
174
     0
175
     0
176
     0
177
     0
178
     0
179
     0
271
     4
272
     4
273
     2
274
     2
275
     0
276
     0
277
     2
278
    46
279
     0
280
     0
281
     0
282
     0
283
     1
284
     0
285
     0
286
     0
288
     0
289
     3
340
17
341
0
342
0
343
0
344
0
371
    -2
372
    -2
  0
DIMSTYLE
105
3D
100
AcDbSymbolTableRecord
100
AcDbDimStyleTableRecord
  2
VCADD_DIMSTYLE
 70
     0
  3

  4

 40
1.0
 41
1.0
 42
0.2
 43
0.0
 44
0.2
 45
0.0
 46
0.0
 47
1.0
 48
1.0
 71
     0
 72
     0
 73
     0
 74
     1
 75
     0
 76
     0
 77
     0
 78
     3
 79
     0
140
3.0
141
0.0
142
0.0
143
25.4
144
1.0
145
0.0
146
1.0
147
0.2
148
0.0
170
     0
171
     4
172
     0
173
     0
174
     1
175
     0
176
     1
177
     1
178
     1
179
     4
271
     4
272
     4
273
     2
274
     2
275
     0
276
     0
277
     3
278
    46
279
     0
280
     0
281
     0
282
     0
283
     1
284
     0
285
     0
286
     0
288
     0
289
     3
340
3C
341
0
342
0
343
0
344
0
371
    -2
372
    -2
  0
ENDTAB
  0
TABLE
  2
BLOCK_RECORD
  5
1
100
AcDbSymbolTable
 70
     5
  0
BLOCK_RECORD
  5
A
100
AcDbSymbolTableRecord
100
AcDbBlockTableRecord
  2
*MODEL_SPACE
340
20
  0
BLOCK_RECORD
  5
B
100
AcDbSymbolTableRecord
100
AcDbBlockTableRecord
  2
*PAPER_SPACE
340
21
  0
BLOCK_RECORD
  5
35
100
AcDbSymbolTableRecord
100
AcDbBlockTableRecord
  2
_CLOSED
340
0
  0
BLOCK_RECORD
  5
B6
100
AcDbSymbolTableRecord
100
AcDbBlockTableRecord
  2
arrwhead
340
0
102
{BLKREFS
331
C0
102
}
  0
BLOCK_RECORD
  5
232
100
AcDbSymbolTableRecord
100
AcDbBlockTableRecord
  2
DRAPE
340
0
102
{BLKREFS
331
23B
331
23C
331
23D
331
23E
331
23F
331
240
331
241
331
242
331
243
331
244
331
245
331
246
331
247
331
248
331
249
331
24A
331
24B
331
2D5
331
2D6
331
2D7
331
2D8
331
2D9
331
2DA
331
2DB
331
2DC
331
2DD
331
2DE
331
2DF
331
2E0
331
2E1
331
2E2
331
2E3
331
2E4
331
2E5
331
2E6
331
2E7
331
2E8
331
2E9
331
2EA
331
2EB
331
2EC
331
2ED
331
2EE
331
2EF
331
2F0
331
2F1
331
2F2
331
2F3
331
2F4
331
2F5
331
2F6
331
2F7
331
2F8
331
2F9
331
2FA
331
2FB
331
2FC
331
2FD
331
2FE
331
2FF
102
}
  0
BLOCK_RECORD
  5
27C
100
AcDbSymbolTableRecord
100
AcDbBlockTableRecord
  2
centerline
340
0
102
{BLKREFS
331
2D0
102
}
  0
BLOCK_RECORD
  5
3E0
100
AcDbSymbolTableRecord
100
AcDbBlockTableRecord
  2
SIGHTLN
340
0
102
{BLKREFS
331
3E7
331
3E9
102
}
  0
ENDTAB
  0
ENDSEC
  0
SECTION
  2
BLOCKS
  0
BLOCK
  5
D
100
AcDbEntity
  8
0
390
0
100
AcDbBlockBegin
  2
*MODEL_SPACE
 70
     0
 10
0.0
 20
0.0
 30
0.0
  3
*MODEL_SPACE
  1

  0
ENDBLK
  5
E
100
AcDbEntity
  8
0
390
0
100
AcDbBlockEnd
  0
BLOCK
  5
F
100
AcDbEntity
 67
     1
  8
0
390
0
100
AcDbBlockBegin
  2
*PAPER_SPACE
 70
     0
 10
0.0
 20
0.0
 30
0.0
  3
*PAPER_SPACE
  1

  0
ENDBLK
  5
10
100
AcDbEntity
 67
     1
  8
0
390
0
100
AcDbBlockEnd
  0
BLOCK
  5
36
100
AcDbEntity
  8
0
390
0
100
AcDbBlockBegin
  2
_CLOSED
 70
     0
 10
0.0
 20
0.0
 30
0.0
  3
_CLOSED
  1

  0
LINE
  5
37
100
AcDbEntity
  8
0
370
    -2
390
0
  6
ByBlock
 62
     0
100
AcDbLine
 10
-1.0
 20
0.166667
 30
0.0
 11
0.0
 21
0.0
 31
0.0
  0
LINE
  5
38
100
AcDbEntity
  8
0
370
    -2
390
0
  6
ByBlock
 62
     0
100
AcDbLine
 10
0.0
 20
0.0
 30
0.0
 11
-1.0
 21
-0.166667
 31
0.0
  0
LINE
  5
39
100
AcDbEntity
  8
0
370
    -2
390
0
  6
ByBlock
 62
     0
100
AcDbLine
 10
-1.0
 20
0.166667
 30
0.0
 11
-1.0
 21
-0.166667
 31
0.0
  0
LINE
  5
3A
100
AcDbEntity
  8
0
370
    -2
390
0
  6
ByBlock
 62
     0
100
AcDbLine
 10
0.0
 20
0.0
 30
0.0
 11
-1.0
 21
0.0
 31
0.0
  0
ENDBLK
  5
3B
100
AcDbEntity
  8
0
390
0
100
AcDbBlockEnd
  0
BLOCK
  5
B7
100
AcDbEntity
  8
0
390
0
100
AcDbBlockBegin
  2
arrwhead
 70
     0
 10
0.0
 20
0.0
 30
0.0
  3
arrwhead
  1

  0
POLYLINE
  5
B8
100
AcDbEntity
  8
POS-HIDDEN
370
     0
390
0
  6
Continuous
 62
   134
100
AcDb2dPolyline
 66
     1
 10
0.0
 20
0.0
 30
0.0
 70
   129
  0
VERTEX
  5
B9
100
AcDbEntity
  8
POS-HIDDEN
370
     0
390
0
  6
Continuous
 62
   134
100
AcDbVertex
100
AcDb2dVertex
 10
1.0
 20
0.0
 30
0.0
  0
VERTEX
  5
BA
100
AcDbEntity
  8
POS-HIDDEN
370
     0
390
0
  6
Continuous
 62
   134
100
AcDbVertex
100
AcDb2dVertex
 10
0.0
 20
-1.0
 30
0.0
  0
VERTEX
  5
BB
100
AcDbEntity
  8
POS-HIDDEN
370
     0
390
0
  6
Continuous
 62
   134
100
AcDbVertex
100
AcDb2dVertex
 10
0.0
 20
1.0
 30
0.0
  0
VERTEX
  5
BC
100
AcDbEntity
  8
POS-HIDDEN
370
     0
390
0
  6
Continuous
 62
   134
100
AcDbVertex
100
AcDb2dVertex
 10
1.0
 20
0.0
 30
0.0
  0
SEQEND
  5
BD
100
AcDbEntity
  8
POS-HIDDEN
370
     0
390
0
  6
Continuous
 62
   134
  0
HATCH
  5
BE
100
AcDbEntity
  8
POS-HIDDEN
370
     0
390
0
  6
Continuous
 62
   134
100
AcDbHatch
 10
0.0
 20
0.0
 30
0.0
210
0.0
220
0.0
230
1.0
  2
SOLID
 70
     1
 71
     0
 91
        1
 92
        1
 93
        3
 72
     1
 10
1.0
 20
0.0
 11
0.0
 21
-1.0
 72
     1
 10
0.0
 20
-1.0
 11
0.0
 21
1.0
 72
     1
 10
0.0
 20
1.0
 11
1.0
 21
0.0
 97
        0
 75
     0
 76
     1
 98
        1
 10
0.0
 20
0.0
  0
ENDBLK
  5
BF
100
AcDbEntity
  8
0
390
0
100
AcDbBlockEnd
  0
BLOCK
  5
233
100
AcDbEntity
  8
0
390
0
100
AcDbBlockBegin
  2
DRAPE
 70
     0
 10
0.0
 20
0.0
 30
0.0
  3
DRAPE
  1

  0
ARC
  5
234
100
AcDbEntity
  8
0
370
     0
390
0
  6
Continuous
 62
   134
100
AcDbCircle
 10
0.0
 20
1.0
 30
0.0
 40
1.0
100
AcDbArc
 50
270.0
 51
450.0
  0
ARC
  5
235
100
AcDbEntity
  8
0
370
     0
390
0
  6
Continuous
 62
   134
100
AcDbCircle
 10
0.0
 20
-1.0
 30
0.0
 40
1.0
100
AcDbArc
 50
90.0
 51
270.0
  0
ARC
  5
236
100
AcDbEntity
  8
0
370
     0
390
0
  6
Continuous
 62
   134
100
AcDbCircle
 10
0.0
 20
-3.0
 30
0.0
 40
1.0
100
AcDbArc
 50
270.0
 51
450.0
  0
ARC
  5
237
100
AcDbEntity
  8
0
370
     0
390
0
  6
Continuous
 62
   134
100
AcDbCircle
 10
0.0
 20
3.0
 30
0.0
 40
1.0
100
AcDbArc
 50
90.0
 51
270.0
  0
ARC
  5
238
100
AcDbEntity
  8
0
370
     0
390
0
  6
Continuous
 62
   134
100
AcDbCircle
 10
0.0
 20
-5.0
 30
0.0
 40
1.0
100
AcDbArc
 50
90.0
 51
270.0
  0
ARC
  5
239
100
AcDbEntity
  8
0
370
     0
390
0
  6
Continuous
 62
   134
100
AcDbCircle
 10
0.0
 20
5.0
 30
0.0
 40
1.0
100
AcDbArc
 50
270.0
 51
450.0
  0
ENDBLK
  5
23A
100
AcDbEntity
  8
0
390
0
100
AcDbBlockEnd
  0
BLOCK
  5
27D
100
AcDbEntity
  8
0
390
0
100
AcDbBlockBegin
  2
centerline
 70
     0
 10
0.0
 20
0.0
 30
0.0
  3
centerline
  1

  0
HATCH
  5
27E
100
AcDbEntity
  8
TITLE BLOCK
370
     0
390
0
  6
Continuous
 62
   134
100
AcDbHatch
 10
0.0
 20
0.0
 30
0.0
210
0.0
220
0.0
230
1.0
  2
DOTS
 70
     0
 71
     0
 91
        1
 92
        1
 93
        7
 72
     1
 10
3.867594295181334
 20
6.4058444127440453
 11
4.906555705703795
 21
7.0551950335502625
 72
     1
 10
4.6143475109711289
 20
8.4350652098655701
 11
4.5007112557068467
 21
8.4350652098655701
 72
     1
 10
4.5007112557068467
 20
8.4350652098655701
 11
4.0514704519882798
 21
7.7292797565460205
 72
     1
 10
4.0514704519882798
 20
7.7292797565460205
 11
3.4779837662354112
 21
7.1201301217079163
 72
     1
 10
3.4779837662354112
 20
7.1201301217079163
 11
2.8150835568085313
 21
6.6538248062133789
 72
     1
 10
2.8150835568085313
 20
6.6538248062133789
 11
2.0818796688690782
 21
6.3084418177604675
 72
     1
 10
4.3059053951874375
 20
13.61363685131073
 11
4.8740866715088487
 21
14.993507027626038
 97
        0
 75
     0
 76
     1
 52
0.0
 41
12.0
 77
     0
 78
     1
 53
0.0
 43
0.0
 44
0.0
 45
0.3744
 46
0.75
 79
     2
 49
0.0
 49
-0.75
 98
        1
 10
0.0
 20
0.0
  0
HATCH
  5
27F
100
AcDbEntity
  8
TITLE BLOCK
370
     0
390
0
  6
Continuous
 62
    14
100
AcDbHatch
 10
0.0
 20
0.0
 30
0.0
210
0.0
220
0.0
230
1.0
  2
DOTS
 70
     0
 71
     0
 91
        1
 92
        1
 93
       26
 72
     1
 10
-2.0041587855666876
 20
10.766233921051025
 11
-1.4684445317834616
 21
10.392857313156128
 72
     1
 10
-1.338574355468154
 20
9.8733766078948975
 11
-1.338574355468154
 21
8.0551947355270386
 72
     1
 10
-1.338574355468154
 20
8.0551947355270386
 11
-1.338574355468154
 21
6.2207789421081543
 72
     1
 10
-1.338574355468154
 20
6.2207789421081543
 11
-1.338574355468154
 21
4.4025970697402954
 72
     1
 10
-1.338574355468154
 20
4.4025970697402954
 11
-1.338574355468154
 21
2.5681814253330231
 72
     1
 10
-2.5236392859369516
 20
0.7824671412818134
 11
-0.6080549117177725
 21
0.7824671412818134
 72
     1
 10
-0.6080549117177725
 20
0.7824671412818134
 11
1.3237633649259806
 21
0.7824671412818134
 72
     1
 10
1.3237633649259806
 20
0.7824671412818134
 11
3.2393475715070963
 21
0.7824671412818134
 72
     1
 10
3.2393475715070963
 20
0.7824671412818134
 11
5.1711656991392374
 21
0.7824671412818134
 72
     1
 10
5.1711656991392374
 20
0.7824671412818134
 11
7.0867499057203531
 21
0.7824671412818134
 72
     1
 10
7.0867499057203531
 20
0.7824671412818134
 11
7.4114253465086222
 21
1.8376619815826416
 72
     1
 10
7.4114253465086222
 20
1.8376619815826416
 11
7.7361001912504435
 21
2.9090904891490936
 72
     1
 10
7.7361001912504435
 20
2.9090904891490936
 11
7.5899960938841105
 21
2.9090904891490936
 72
     1
 10
7.5899960938841105
 20
2.9090904891490936
 11
7.1192171517759562
 21
2.4383112490177155
 72
     1
 10
3.9049311820417643
 20
1.2857138440012932
 11
2.5575288478285074
 21
1.2857138440012932
 72
     1
 10
2.5575288478285074
 20
1.2857138440012932
 11
1.2101262155920267
 21
1.2857138440012932
 72
     1
 10
0.0250613037496805
 20
2.7142852246761322
 11
0.0250613037496805
 21
4.3051944375038147
 72
     1
 10
0.0250613037496805
 20
4.3051944375038147
 11
0.0250613037496805
 21
5.9123374223709106
 72
     1
 10
0.0250613037496805
 20
5.9123374223709106
 11
0.0250613037496805
 21
7.5032467842102051
 72
     1
 10
0.0250613037496805
 20
7.5032467842102051
 11
0.0250613037496805
 21
9.1103894710540771
 72
     1
 10
0.0250613037496805
 20
9.1103894710540771
 11
0.0899963919073343
 21
9.8733766078948975
 72
     1
 10
0.4309054557234049
 20
10.555194735527039
 11
0.93415223993361
 21
10.766233921051025
 72
     1
 10
0.93415223993361
 20
10.766233921051025
 11
0.93415223993361
 21
10.896104097366333
 72
     1
 10
0.93415223993361
 20
10.896104097366333
 11
-0.5755879636853933
 21
10.896104097366333
 72
     1
 10
-0.5755879636853933
 20
10.896104097366333
 11
-2.0853282045572996
 21
10.896104097366333
 72
     1
 10
-2.0853282045572996
 20
10.896104097366333
 11
-2.0041587855666876
 21
10.766233921051025
 97
        0
 75
     0
 76
     1
 52
0.0
 41
12.0
 77
     0
 78
     1
 53
0.0
 43
0.0
 44
0.0
 45
0.3744
 46
0.75
 79
     2
 49
0.0
 49
-0.75
 98
        1
 10
0.0
 20
0.0
  0
ARC
  5
280
100
AcDbEntity
  8
TITLE BLOCK
370
     0
390
0
  6
Continuous
 62
   174
100
AcDbCircle
 10
0.38129
 20
11.161513
 30
0.0
 40
5.537903
100
AcDbArc
 50
195.46251
 51
209.880178
  0
ARC
  5
281
100
AcDbEntity
  8
TITLE BLOCK
370
     0
390
0
  6
Continuous
 62
   174
100
AcDbCircle
 10
0.280833
 20
11.06466
 30
0.0
 40
5.415669
100
AcDbArc
 50
180.340583
 51
194.75826
  0
ARC
  5
282
100
AcDbEntity
  8
TITLE BLOCK
370
     0
390
0
  6
Continuous
 62
   174
100
AcDbCircle
 10
0.745656
 20
10.939622
 30
0.0
 40
5.881129
100
AcDbArc
 50
166.476044
 51
179.095429
  0
ARC
  5
283
100
AcDbEntity
  8
TITLE BLOCK
370
     0
390
0
  6
Continuous
 62
   174
100
AcDbCircle
 10
3.282975
 20
10.066169
 30
0.0
 40
8.556179
100
AcDbArc
 50
155.744006
 51
164.762326
  0
HATCH
  5
284
100
AcDbEntity
  8
TITLE BLOCK
370
     0
390
0
  6
Continuous
 62
    14
100
AcDbHatch
 10
0.0
 20
0.0
 30
0.0
210
0.0
220
0.0
230
1.0
  2
DOTS
 70
     0
 71
     0
 91
        1
 92
        1
 93
       26
 72
     1
 10
-1.4285708218812943
 20
10.766233921051025
 11
-0.8928565680980682
 21
10.392857313156128
 72
     1
 10
-0.7629863917827606
 20
9.8733766078948975
 11
-0.7629863917827606
 21
8.0551947355270386
 72
     1
 10
-0.7629863917827606
 20
8.0551947355270386
 11
-0.7629863917827606
 21
6.2207789421081543
 72
     1
 10
-0.7629863917827606
 20
6.2207789421081543
 11
-0.7629863917827606
 21
4.4025970697402954
 72
     1
 10
-0.7629863917827606
 20
4.4025970697402954
 11
-0.7629863917827606
 21
2.5681814253330231
 72
     1
 10
-1.9480513222515583
 20
0.7824671412818134
 11
-0.0324669480323792
 21
0.7824671412818134
 72
     1
 10
-0.0324669480323792
 20
0.7824671412818134
 11
1.8993513286113739
 21
0.7824671412818134
 72
     1
 10
1.8993513286113739
 20
0.7824671412818134
 11
3.8149355351924896
 21
0.7824671412818134
 72
     1
 10
3.8149355351924896
 20
0.7824671412818134
 11
5.7467536628246307
 21
0.7824671412818134
 72
     1
 10
5.7467536628246307
 20
0.7824671412818134
 11
7.6623378694057465
 21
0.7824671412818134
 72
     1
 10
7.6623378694057465
 20
0.7824671412818134
 11
7.9870133101940155
 21
1.8376619815826416
 72
     1
 10
7.9870133101940155
 20
1.8376619815826416
 11
8.3116881549358368
 21
2.9090904891490936
 72
     1
 10
8.3116881549358368
 20
2.9090904891490936
 11
8.1655840575695038
 21
2.9090904891490936
 72
     1
 10
8.1655840575695038
 20
2.9090904891490936
 11
7.6948051154613495
 21
2.4383112490177155
 72
     1
 10
4.4805191457271576
 20
1.2857138440012932
 11
3.1331168115139008
 21
1.2857138440012932
 72
     1
 10
3.1331168115139008
 20
1.2857138440012932
 11
1.78571417927742
 21
1.2857138440012932
 72
     1
 10
0.6006492674350739
 20
2.7142852246761322
 11
0.6006492674350739
 21
4.3051944375038147
 72
     1
 10
0.6006492674350739
 20
4.3051944375038147
 11
0.6006492674350739
 21
5.9123374223709106
 72
     1
 10
0.6006492674350739
 20
5.9123374223709106
 11
0.6006492674350739
 21
7.5032467842102051
 72
     1
 10
0.6006492674350739
 20
7.5032467842102051
 11
0.6006492674350739
 21
9.1103894710540771
 72
     1
 10
0.6006492674350739
 20
9.1103894710540771
 11
0.6655843555927277
 21
9.8733766078948975
 72
     1
 10
1.0064934194087982
 20
10.555194735527039
 11
1.5097402036190033
 21
10.766233921051025
 72
     1
 10
1.5097402036190033
 20
10.766233921051025
 11
1.5097402036190033
 21
10.896104097366333
 72
     1
 10
1.5097402036190033
 20
10.896104097366333
 11
0.0
 21
10.896104097366333
 72
     1
 10
0.0
 20
10.896104097366333
 11
-1.5097402408719063
 21
10.896104097366333
 72
     1
 10
-1.5097402408719063
 20
10.896104097366333
 11
-1.4285708218812943
 21
10.766233921051025
 97
        0
 75
     0
 76
     1
 52
0.0
 41
96.0
 77
     0
 78
     1
 53
0.0
 43
0.0
 44
0.0
 45
2.9951999999999996
 46
6.0
 79
     2
 49
0.0
 49
-6.0
 98
        1
 10
0.0
 20
0.0
  0
ARC
  5
285
100
AcDbEntity
  8
TITLE BLOCK
370
     0
390
0
  6
Continuous
 62
   174
100
AcDbCircle
 10
0.843702
 20
9.340589
 30
0.0
 40
7.135678
100
AcDbArc
 50
94.471854
 51
110.685984
  0
ARC
  5
286
100
AcDbEntity
  8
TITLE BLOCK
370
     0
390
0
  6
Continuous
 62
   174
100
AcDbCircle
 10
0.644067
 20
10.450054
 30
0.0
 40
6.03071
100
AcDbArc
 50
112.635414
 51
130.644145
  0
ARC
  5
287
100
AcDbEntity
  8
TITLE BLOCK
370
     0
390
0
  6
Continuous
 62
   174
100
AcDbCircle
 10
1.170375
 20
9.972982
 30
0.0
 40
6.736097
100
AcDbArc
 50
131.397791
 51
147.612026
  0
ARC
  5
288
100
AcDbEntity
  8
TITLE BLOCK
370
     0
390
0
  6
Continuous
 62
   174
100
AcDbCircle
 10
0.604765
 20
11.934311
 30
0.0
 40
6.142136
100
AcDbArc
 50
215.099461
 51
234.900536
  0
ARC
  5
289
100
AcDbEntity
  8
TITLE BLOCK
370
     0
390
0
  6
Continuous
 62
   174
100
AcDbCircle
 10
0.661959
 20
12.326404
 30
0.0
 40
6.498272
100
AcDbArc
 50
236.475993
 51
254.484723
  0
ARC
  5
28A
100
AcDbEntity
  8
TITLE BLOCK
370
     0
390
0
  6
Continuous
 62
   174
100
AcDbCircle
 10
1.045472
 20
14.076811
 30
0.0
 40
8.288067
100
AcDbArc
 50
255.16697
 51
269.584645
  0
ARC
  5
28B
100
AcDbEntity
  8
TITLE BLOCK
370
     0
390
0
  6
Continuous
 62
   174
100
AcDbCircle
 10
0.840883
 20
17.088924
 30
0.0
 40
11.300887
100
AcDbArc
 50
270.732673
 51
279.750966
  0
ARC
  5
28C
100
AcDbEntity
  8
TITLE BLOCK
370
     0
390
0
  6
Continuous
 62
   174
100
AcDbCircle
 10
0.717146
 20
16.882699
 30
0.0
 40
11.119705
100
AcDbArc
 50
280.559324
 51
289.577652
  0
LINE
  5
28D
100
AcDbEntity
  8
TITLE BLOCK
370
     0
390
0
  6
Continuous
 62
   174
100
AcDbLine
 10
4.443182
 20
6.405844
 30
0.0
 11
5.482144
 21
7.055195
 31
0.0
  0
ARC
  5
28E
100
AcDbEntity
  8
TITLE BLOCK
370
     0
390
0
  6
Continuous
 62
   174
100
AcDbCircle
 10
-3.412482
 20
5.892499
 30
0.0
 40
8.970297
100
AcDbArc
 50
7.447413
 51
16.465787
  0
ARC
  5
28F
100
AcDbEntity
  8
TITLE BLOCK
370
     0
390
0
  6
Continuous
 62
   174
100
AcDbCircle
 10
1.079543
 20
10.68145
 30
0.0
 40
4.648984
100
AcDbArc
 50
270.040042
 51
289.841102
  0
ARC
  5
290
100
AcDbEntity
  8
TITLE BLOCK
370
     0
390
0
  6
Continuous
 62
   174
100
AcDbCircle
 10
1.090003
 20
10.62191
 30
0.0
 40
4.589448
100
AcDbArc
 50
248.318962
 51
269.909983
  0
ARC
  5
291
100
AcDbEntity
  8
TITLE BLOCK
370
     0
390
0
  6
Continuous
 62
   174
100
AcDbCircle
 10
1.236279
 20
10.811129
 30
0.0
 40
4.819773
100
AcDbArc
 50
225.943067
 51
247.534076
  0
ARC
  5
292
100
AcDbEntity
  8
TITLE BLOCK
370
     0
390
0
  6
Continuous
 62
   174
100
AcDbCircle
 10
1.920066
 20
10.94028
 30
0.0
 40
5.40302
100
AcDbArc
 50
200.089433
 51
221.680465
  0
ARC
  5
293
100
AcDbEntity
  8
TITLE BLOCK
370
     0
390
0
  6
Continuous
 62
   174
100
AcDbCircle
 10
2.480346
 20
11.122138
 30
0.0
 40
5.991716
100
AcDbArc
 50
180.081297
 51
199.882358
  0
ARC
  5
294
100
AcDbEntity
  8
TITLE BLOCK
370
     0
390
0
  6
Continuous
 62
   174
100
AcDbCircle
 10
2.650432
 20
11.119303
 30
0.0
 40
6.161799
100
AcDbArc
 50
163.838482
 51
180.05269
  0
ARC
  5
295
100
AcDbEntity
  8
TITLE BLOCK
370
     0
390
0
  6
Continuous
 62
   174
100
AcDbCircle
 10
2.074123
 20
11.265508
 30
0.0
 40
5.567605
100
AcDbArc
 50
145.62407
 51
163.632803
  0
ARC
  5
296
100
AcDbEntity
  8
TITLE BLOCK
370
     0
390
0
  6
Continuous
 62
   174
100
AcDbCircle
 10
1.237725
 20
11.81711
 30
0.0
 40
4.56587
100
AcDbArc
 50
123.819988
 51
145.410959
  0
ARC
  5
297
100
AcDbEntity
  8
TITLE BLOCK
370
     0
390
0
  6
Continuous
 62
   174
100
AcDbCircle
 10
0.900603
 20
11.586106
 30
0.0
 40
4.588382
100
AcDbArc
 50
104.292524
 51
118.710328
  0
ARC
  5
298
100
AcDbEntity
  8
TITLE BLOCK
370
     0
390
0
  6
Continuous
 62
   174
100
AcDbCircle
 10
0.988618
 20
11.040188
 30
0.0
 40
5.139369
100
AcDbArc
 50
91.121952
 51
103.740884
  0
ARC
  5
299
100
AcDbEntity
  8
TITLE BLOCK
370
     0
390
0
  6
Continuous
 62
   174
100
AcDbCircle
 10
0.886928
 20
11.242406
 30
0.0
 40
4.936166
100
AcDbArc
 50
70.186799
 51
89.987709
  0
ARC
  5
29A
100
AcDbEntity
  8
TITLE BLOCK
370
     0
390
0
  6
Continuous
 62
   174
100
AcDbCircle
 10
0.97566
 20
11.702038
 30
0.0
 40
4.474251
100
AcDbArc
 50
47.669704
 51
69.260709
  0
ARC
  5
29B
100
AcDbEntity
  8
TITLE BLOCK
370
     0
390
0
  6
Continuous
 62
   174
100
AcDbCircle
 10
1.708644
 20
12.568048
 30
0.0
 40
3.340693
100
AcDbArc
 50
18.239254
 51
46.961415
  0
LINE
  5
29C
100
AcDbEntity
  8
TITLE BLOCK
370
     0
390
0
  6
Continuous
 62
   174
100
AcDbLine
 10
4.881493
 20
13.613637
 30
0.0
 11
5.449675
 21
14.993507
 31
0.0
  0
ARC
  5
29D
100
AcDbEntity
  8
TITLE BLOCK
370
     0
390
0
  6
Continuous
 62
   174
100
AcDbCircle
 10
3.876469
 20
13.931982
 30
0.0
 40
1.897844
100
AcDbArc
 50
34.009632
 51
59.172621
  0
ARC
  5
29E
100
AcDbEntity
  8
TITLE BLOCK
370
     0
390
0
  6
Continuous
 62
   174
100
AcDbCircle
 10
4.277212
 20
14.384381
 30
0.0
 40
1.308826
100
AcDbArc
 50
64.094341
 51
69.50855
  0
ARC
  5
29F
100
AcDbEntity
  8
TITLE BLOCK
370
     0
390
0
  6
Continuous
 62
   174
100
AcDbCircle
 10
-0.21207
 20
4.090734
 30
0.0
 40
12.537138
100
AcDbArc
 50
66.757457
 51
75.775847
  0
ARC
  5
2A0
100
AcDbEntity
  8
TITLE BLOCK
370
     0
390
0
  6
Continuous
 62
   174
100
AcDbCircle
 10
0.809598
 20
7.703144
 30
0.0
 40
8.785038
100
AcDbArc
 50
76.445786
 51
89.065202
  0
ARC
  5
2A1
100
AcDbEntity
  8
TITLE BLOCK
370
     0
390
0
  6
Continuous
 62
   174
100
AcDbCircle
 10
1.048182
 20
11.32698
 30
0.0
 40
5.160912
100
AcDbArc
 50
91.057629
 51
94.667234
  0
ARC
  5
2A2
100
AcDbEntity
  8
TITLE BLOCK
370
     0
390
0
  6
Continuous
 62
   174
100
AcDbCircle
 10
0.200165
 20
21.872772
 30
0.0
 40
5.418929
100
AcDbArc
 50
270.921731
 51
274.530938
  0
LINE
  5
2A3
100
AcDbEntity
  8
TITLE BLOCK
370
     0
390
0
  6
Continuous
 62
   174
100
AcDbLine
 10
-1.428571
 20
10.766234
 30
0.0
 11
-0.892857
 21
10.392857
 31
0.0
  0
ARC
  5
2A4
100
AcDbEntity
  8
TITLE BLOCK
370
     0
390
0
  6
Continuous
 62
   174
100
AcDbCircle
 10
-2.095411
 20
9.883781
 30
0.0
 40
1.30587
100
AcDbArc
 50
13.925531
 51
22.944367
  0
ARC
  5
2A5
100
AcDbEntity
  8
TITLE BLOCK
370
     0
390
0
  6
Continuous
 62
   174
100
AcDbCircle
 10
-5.94835
 20
9.005135
 30
0.0
 40
5.257551
100
AcDbArc
 50
9.505473
 51
13.114392
  0
ARC
  5
2A6
100
AcDbEntity
  8
TITLE BLOCK
370
     0
390
0
  6
Continuous
 62
   174
100
AcDbCircle
 10
-2.632322
 20
2.522657
 30
0.0
 40
1.86989
100
AcDbArc
 50
291.465545
 51
361.395058
  0
LINE
  5
2A7
100
AcDbEntity
  8
TITLE BLOCK
370
     0
390
0
  6
Continuous
 62
   174
100
AcDbLine
 10
8.165584
 20
2.90909
 30
0.0
 11
7.694805
 21
2.438311
 31
0.0
  0
ARC
  5
2A8
100
AcDbEntity
  8
TITLE BLOCK
370
     0
390
0
  6
Continuous
 62
   174
100
AcDbCircle
 10
4.811514
 20
5.99133
 30
0.0
 40
4.57573
100
AcDbArc
 50
287.468516
 51
309.059489
  0
ARC
  5
2A9
100
AcDbEntity
  8
TITLE BLOCK
370
     0
390
0
  6
Continuous
 62
   174
100
AcDbCircle
 10
3.532845
 20
10.455901
 30
0.0
 40
9.219025
100
AcDbArc
 50
275.900167
 51
286.719697
  0
ARC
  5
2AA
100
AcDbEntity
  8
TITLE BLOCK
370
     0
390
0
  6
Continuous
 62
   174
100
AcDbCircle
 10
2.635822
 20
6.250418
 30
0.0
 40
5.03696
100
AcDbArc
 50
253.067476
 51
260.283456
  0
ARC
  5
2AB
100
AcDbEntity
  8
TITLE BLOCK
370
     0
390
0
  6
Continuous
 62
   174
100
AcDbCircle
 10
3.237016
 20
3.115199
 30
0.0
 40
2.666676
100
AcDbArc
 50
188.646759
 51
219.14357
  0
ARC
  5
2AC
100
AcDbEntity
  8
TITLE BLOCK
370
     0
390
0
  6
Continuous
 62
   174
100
AcDbCircle
 10
3.531296
 20
8.866657
 30
0.0
 40
3.037398
100
AcDbArc
 50
146.226183
 51
160.643714
  0
LINE
  5
2AD
100
AcDbEntity
  8
TITLE BLOCK
370
     0
390
0
  6
Continuous
 62
   174
100
AcDbLine
 10
1.006493
 20
10.555195
 30
0.0
 11
1.50974
 21
10.766234
 31
0.0
  0
LINE
  5
2AE
100
AcDbEntity
  8
TITLE BLOCK
370
     0
390
0
  6
Continuous
 62
   174
100
AcDbLine
 10
-0.762986
 20
9.873377
 30
0.0
 11
-0.762986
 21
8.055195
 31
0.0
  0
LINE
  5
2AF
100
AcDbEntity
  8
TITLE BLOCK
370
     0
390
0
  6
Continuous
 62
   174
100
AcDbLine
 10
-0.762986
 20
8.055195
 30
0.0
 11
-0.762986
 21
6.220779
 31
0.0
  0
LINE
  5
2B0
100
AcDbEntity
  8
TITLE BLOCK
370
     0
390
0
  6
Continuous
 62
   174
100
AcDbLine
 10
-0.762986
 20
6.220779
 30
0.0
 11
-0.762986
 21
4.402597
 31
0.0
  0
LINE
  5
2B1
100
AcDbEntity
  8
TITLE BLOCK
370
     0
390
0
  6
Continuous
 62
   174
100
AcDbLine
 10
-0.762986
 20
4.402597
 30
0.0
 11
-0.762986
 21
2.568181
 31
0.0
  0
LINE
  5
2B2
100
AcDbEntity
  8
TITLE BLOCK
370
     0
390
0
  6
Continuous
 62
   174
100
AcDbLine
 10
-1.948051
 20
0.782467
 30
0.0
 11
-0.032467
 21
0.782467
 31
0.0
  0
LINE
  5
2B3
100
AcDbEntity
  8
TITLE BLOCK
370
     0
390
0
  6
Continuous
 62
   174
100
AcDbLine
 10
-0.032467
 20
0.782467
 30
0.0
 11
1.899351
 21
0.782467
 31
0.0
  0
LINE
  5
2B4
100
AcDbEntity
  8
TITLE BLOCK
370
     0
390
0
  6
Continuous
 62
   174
100
AcDbLine
 10
1.899351
 20
0.782467
 30
0.0
 11
3.814936
 21
0.782467
 31
0.0
  0
LINE
  5
2B5
100
AcDbEntity
  8
TITLE BLOCK
370
     0
390
0
  6
Continuous
 62
   174
100
AcDbLine
 10
3.814936
 20
0.782467
 30
0.0
 11
5.746754
 21
0.782467
 31
0.0
  0
LINE
  5
2B6
100
AcDbEntity
  8
TITLE BLOCK
370
     0
390
0
  6
Continuous
 62
   174
100
AcDbLine
 10
5.746754
 20
0.782467
 30
0.0
 11
7.662338
 21
0.782467
 31
0.0
  0
LINE
  5
2B7
100
AcDbEntity
  8
TITLE BLOCK
370
     0
390
0
  6
Continuous
 62
   174
100
AcDbLine
 10
7.662338
 20
0.782467
 30
0.0
 11
7.987013
 21
1.837662
 31
0.0
  0
LINE
  5
2B8
100
AcDbEntity
  8
TITLE BLOCK
370
     0
390
0
  6
Continuous
 62
   174
100
AcDbLine
 10
7.987013
 20
1.837662
 30
0.0
 11
8.311688
 21
2.90909
 31
0.0
  0
LINE
  5
2B9
100
AcDbEntity
  8
TITLE BLOCK
370
     0
390
0
  6
Continuous
 62
   174
100
AcDbLine
 10
8.311688
 20
2.90909
 30
0.0
 11
8.165584
 21
2.90909
 31
0.0
  0
LINE
  5
2BA
100
AcDbEntity
  8
TITLE BLOCK
370
     0
390
0
  6
Continuous
 62
   174
100
AcDbLine
 10
4.480519
 20
1.285714
 30
0.0
 11
3.133117
 21
1.285714
 31
0.0
  0
LINE
  5
2BB
100
AcDbEntity
  8
TITLE BLOCK
370
     0
390
0
  6
Continuous
 62
   174
100
AcDbLine
 10
3.133117
 20
1.285714
 30
0.0
 11
1.785714
 21
1.285714
 31
0.0
  0
LINE
  5
2BC
100
AcDbEntity
  8
TITLE BLOCK
370
     0
390
0
  6
Continuous
 62
   174
100
AcDbLine
 10
0.600649
 20
2.714285
 30
0.0
 11
0.600649
 21
4.305194
 31
0.0
  0
LINE
  5
2BD
100
AcDbEntity
  8
TITLE BLOCK
370
     0
390
0
  6
Continuous
 62
   174
100
AcDbLine
 10
0.600649
 20
4.305194
 30
0.0
 11
0.600649
 21
5.912337
 31
0.0
  0
LINE
  5
2BE
100
AcDbEntity
  8
TITLE BLOCK
370
     0
390
0
  6
Continuous
 62
   174
100
AcDbLine
 10
0.600649
 20
5.912337
 30
0.0
 11
0.600649
 21
7.503247
 31
0.0
  0
LINE
  5
2BF
100
AcDbEntity
  8
TITLE BLOCK
370
     0
390
0
  6
Continuous
 62
   174
100
AcDbLine
 10
0.600649
 20
7.503247
 30
0.0
 11
0.600649
 21
9.110389
 31
0.0
  0
LINE
  5
2C0
100
AcDbEntity
  8
TITLE BLOCK
370
     0
390
0
  6
Continuous
 62
   174
100
AcDbLine
 10
0.600649
 20
9.110389
 30
0.0
 11
0.665584
 21
9.873377
 31
0.0
  0
LINE
  5
2C1
100
AcDbEntity
  8
TITLE BLOCK
370
     0
390
0
  6
Continuous
 62
   174
100
AcDbLine
 10
1.50974
 20
10.766234
 30
0.0
 11
1.50974
 21
10.896104
 31
0.0
  0
LINE
  5
2C2
100
AcDbEntity
  8
TITLE BLOCK
370
     0
390
0
  6
Continuous
 62
   174
100
AcDbLine
 10
1.50974
 20
10.896104
 30
0.0
 11
0.0
 21
10.896104
 31
0.0
  0
LINE
  5
2C3
100
AcDbEntity
  8
TITLE BLOCK
370
     0
390
0
  6
Continuous
 62
   174
100
AcDbLine
 10
0.0
 20
10.896104
 30
0.0
 11
-1.50974
 21
10.896104
 31
0.0
  0
POLYLINE
  5
2C4
100
AcDbEntity
  8
TITLE BLOCK
370
     0
390
0
  6
Continuous
 62
   134
100
AcDb2dPolyline
 66
     1
 10
0.0
 20
0.0
 30
0.0
 70
   128
  0
VERTEX
  5
2C5
100
AcDbEntity
  8
TITLE BLOCK
370
     0
390
0
  6
Continuous
 62
   134
100
AcDbVertex
100
AcDb2dVertex
 10
2.657468
 20
6.308442
 30
0.0
  0
VERTEX
  5
2C6
100
AcDbEntity
  8
TITLE BLOCK
370
     0
390
0
  6
Continuous
 62
   134
100
AcDbVertex
100
AcDb2dVertex
 10
3.390672
 20
6.653825
 30
0.0
  0
VERTEX
  5
2C7
100
AcDbEntity
  8
TITLE BLOCK
370
     0
390
0
  6
Continuous
 62
   134
100
AcDbVertex
100
AcDb2dVertex
 10
4.053572
 20
7.12013
 30
0.0
  0
VERTEX
  5
2C8
100
AcDbEntity
  8
TITLE BLOCK
370
     0
390
0
  6
Continuous
 62
   134
100
AcDbVertex
100
AcDb2dVertex
 10
4.627058
 20
7.72928
 30
0.0
  0
VERTEX
  5
2C9
100
AcDbEntity
  8
TITLE BLOCK
370
     0
390
0
  6
Continuous
 62
   134
100
AcDbVertex
100
AcDb2dVertex
 10
5.076299
 20
8.435065
 30
0.0
  0
VERTEX
  5
2CA
100
AcDbEntity
  8
TITLE BLOCK
370
     0
390
0
  6
Continuous
 62
   134
100
AcDbVertex
100
AcDb2dVertex
 10
5.189935
 20
8.435065
 30
0.0
  0
SEQEND
  5
2CB
100
AcDbEntity
  8
TITLE BLOCK
370
     0
390
0
  6
Continuous
 62
   134
  0
LINE
  5
2CC
100
AcDbEntity
  8
TITLE BLOCK
370
     0
390
0
  6
Continuous
 62
   134
100
AcDbLine
 10
-1.50974
 20
10.896104
 30
0.0
 11
-1.428571
 21
10.766234
 31
0.0
  0
HATCH
  5
2CD
100
AcDbEntity
  8
TITLE BLOCK
370
     0
390
0
  6
Continuous
 62
     1
100
AcDbHatch
 10
0.0
 20
0.0
 30
0.0
210
0.0
220
0.0
230
1.0
  2
DOTS
 70
     0
 71
     0
 91
        1
 92
        1
 93
        7
 72
     1
 10
4.4431822588667274
 20
6.4058444127440453
 11
5.4821436693891883
 21
7.0551950335502625
 72
     1
 10
5.1899354746565223
 20
8.4350652098655701
 11
5.07629921939224
 21
8.4350652098655701
 72
     1
 10
5.07629921939224
 20
8.4350652098655701
 11
4.6270584156736732
 21
7.7292797565460205
 72
     1
 10
4.6270584156736732
 20
7.7292797565460205
 11
4.0535717299208045
 21
7.1201301217079163
 72
     1
 10
4.0535717299208045
 20
7.1201301217079163
 11
3.3906715204939246
 21
6.6538248062133789
 72
     1
 10
3.3906715204939246
 20
6.6538248062133789
 11
2.6574676325544715
 21
6.3084418177604675
 72
     1
 10
4.8814933588728309
 20
13.61363685131073
 11
5.449674635194242
 21
14.993507027626038
 97
        0
 75
     0
 76
     1
 52
0.0
 41
4.0
 77
     0
 78
     1
 53
0.0
 43
0.0
 44
0.0
 45
0.1248
 46
0.25
 79
     2
 49
0.0
 49
-0.25
 98
        1
 10
0.0
 20
0.0
  0
HATCH
  5
2CE
100
AcDbEntity
  8
TITLE BLOCK
370
     0
390
0
  6
Continuous
 62
     1
100
AcDbHatch
 10
0.0
 20
0.0
 30
0.0
210
0.0
220
0.0
230
1.0
  2
DOTS
 70
     0
 71
     0
 91
        1
 92
        1
 93
       26
 72
     1
 10
-1.4285708218812943
 20
10.766233921051025
 11
-0.8928565680980682
 21
10.392857313156128
 72
     1
 10
-0.7629863917827606
 20
9.8733766078948975
 11
-0.7629863917827606
 21
8.0551947355270386
 72
     1
 10
-0.7629863917827606
 20
8.0551947355270386
 11
-0.7629863917827606
 21
6.2207789421081543
 72
     1
 10
-0.7629863917827606
 20
6.2207789421081543
 11
-0.7629863917827606
 21
4.4025970697402954
 72
     1
 10
-0.7629863917827606
 20
4.4025970697402954
 11
-0.7629863917827606
 21
2.5681814253330231
 72
     1
 10
-1.9480513222515583
 20
0.7824671412818134
 11
-0.0324669480323792
 21
0.7824671412818134
 72
     1
 10
-0.0324669480323792
 20
0.7824671412818134
 11
1.8993513286113739
 21
0.7824671412818134
 72
     1
 10
1.8993513286113739
 20
0.7824671412818134
 11
3.8149355351924896
 21
0.7824671412818134
 72
     1
 10
3.8149355351924896
 20
0.7824671412818134
 11
5.7467536628246307
 21
0.7824671412818134
 72
     1
 10
5.7467536628246307
 20
0.7824671412818134
 11
7.6623378694057465
 21
0.7824671412818134
 72
     1
 10
7.6623378694057465
 20
0.7824671412818134
 11
7.9870133101940155
 21
1.8376619815826416
 72
     1
 10
7.9870133101940155
 20
1.8376619815826416
 11
8.3116881549358368
 21
2.9090904891490936
 72
     1
 10
8.3116881549358368
 20
2.9090904891490936
 11
8.1655840575695038
 21
2.9090904891490936
 72
     1
 10
8.1655840575695038
 20
2.9090904891490936
 11
7.6948051154613495
 21
2.4383112490177155
 72
     1
 10
4.4805191457271576
 20
1.2857138440012932
 11
3.1331168115139008
 21
1.2857138440012932
 72
     1
 10
3.1331168115139008
 20
1.2857138440012932
 11
1.78571417927742
 21
1.2857138440012932
 72
     1
 10
0.6006492674350739
 20
2.7142852246761322
 11
0.6006492674350739
 21
4.3051944375038147
 72
     1
 10
0.6006492674350739
 20
4.3051944375038147
 11
0.6006492674350739
 21
5.9123374223709106
 72
     1
 10
0.6006492674350739
 20
5.9123374223709106
 11
0.6006492674350739
 21
7.5032467842102051
 72
     1
 10
0.6006492674350739
 20
7.5032467842102051
 11
0.6006492674350739
 21
9.1103894710540771
 72
     1
 10
0.6006492674350739
 20
9.1103894710540771
 11
0.6655843555927277
 21
9.8733766078948975
 72
     1
 10
1.0064934194087982
 20
10.555194735527039
 11
1.5097402036190033
 21
10.766233921051025
 72
     1
 10
1.5097402036190033
 20
10.766233921051025
 11
1.5097402036190033
 21
10.896104097366333
 72
     1
 10
1.5097402036190033
 20
10.896104097366333
 11
0.0
 21
10.896104097366333
 72
     1
 10
0.0
 20
10.896104097366333
 11
-1.5097402408719063
 21
10.896104097366333
 72
     1
 10
-1.5097402408719063
 20
10.896104097366333
 11
-1.4285708218812943
 21
10.766233921051025
 97
        0
 75
     0
 76
     1
 52
0.0
 41
4.0
 77
     0
 78
     1
 53
0.0
 43
0.0
 44
0.0
 45
0.1248
 46
0.25
 79
     2
 49
0.0
 49
-0.25
 98
        1
 10
0.0
 20
0.0
  0
ENDBLK
  5
2CF
100
AcDbEntity
  8
0
390
0
100
AcDbBlockEnd
  0
BLOCK
  5
3E1
100
AcDbEntity
  8
0
390
0
100
AcDbBlockBegin
  2
SIGHTLN
 70
     0
 10
0.0
 20
0.0
 30
0.0
  3
SIGHTLN
  1

  0
LINE
  5
3E2
100
AcDbEntity
  8
0
370
     0
390
0
  6
Continuous
 62
   134
100
AcDbLine
 10
0.0
 20
0.0
 30
0.0
 11
-6.156372
 21
-16.914459
 31
0.0
  0
LINE
  5
3E3
100
AcDbEntity
  8
0
370
     0
390
0
  6
Continuous
 62
   134
100
AcDbLine
 10
0.0
 20
0.0
 30
0.0
 11
-16.313538
 21
-7.607117
 31
0.0
  0
LINE
  5
3E4
100
AcDbEntity
  8
0
370
     0
390
0
  6
Continuous
 62
   134
100
AcDbLine
 10
0.0
 20
0.0
 30
0.0
 11
0.0
 21
0.0
 31
0.0
  0
ARC
  5
3E5
100
AcDbEntity
  8
0
370
     0
390
0
  6
Continuous
 62
   134
100
AcDbCircle
 10
0.002204
 20
-0.040985
 30
0.0
 40
14.966824
100
AcDbArc
 50
204.949623
 51
249.59065
  0
ENDBLK
  5
3E6
100
AcDbEntity
  8
0
390
0
100
AcDbBlockEnd
  0
ENDSEC
  0
SECTION
  2
ENTITIES
  0
VIEWPORT
  5
3E
100
AcDbEntity
 67
     1
  8
0
390
0
  6
Continuous
 62
     0
100
AcDbViewport
 10
4.5
 20
3.259162
 30
0.0
 40
12.857143
 41
9.311892
 68
     1
 69
     1
 12
762.9316
 22
546.5183
 13
1169.457242
 23
377.488
 14
0.5
 24
0.5
 15
12.0
 25
12.0
 16
0.0
 26
0.0
 36
1.0
 17
0.0
 27
0.0
 37
0.0
 42
50.0
 43
-55.0
 44
-55.0
 45
1084.5
 50
0.0
 51
0.0
 72
   500
 90
        0
340
0
  1

281
     0
 71
     1
 74
     0
110
0.0
120
0.0
130
0.0
111
1.0
121
0.0
131
0.0
112
0.0
122
1.0
132
0.0
345
0
346
0
 79
     0
146
0.0
  0
ARC
  5
3F
100
AcDbEntity
  8
BORDER
370
     0
390
0
  6
Continuous
 62
   174
100
AcDbCircle
 10
-503.417629
 20
221.671755
 30
0.0
 40
4.5
100
AcDbArc
 50
90.0
 51
180.0
  0
LINE
  5
40
100
AcDbEntity
  8
BORDER
370
     0
390
0
  6
Continuous
 62
   174
100
AcDbLine
 10
-503.417629
 20
226.171755
 30
0.0
 11
-497.417629
 21
226.171755
 31
0.0
  0
ARC
  5
41
100
AcDbEntity
  8
BORDER
370
     0
390
0
  6
Continuous
 62
   174
100
AcDbCircle
 10
-497.417629
 20
224.671755
 30
0.0
 40
6.0
100
AcDbArc
 50
90.0
 51
180.0
  0
LINE
  5
42
100
AcDbEntity
  8
BORDER
370
     0
390
0
  6
Continuous
 62
   174
100
AcDbLine
 10
-503.417629
 20
221.671755
 30
0.0
 11
-503.417629
 21
224.671755
 31
0.0
  0
ARC
  5
43
100
AcDbEntity
  8
BORDER
370
    30
390
0
  6
Continuous
 62
    14
100
AcDbCircle
 10
-503.417629
 20
221.671755
 30
0.0
 40
6.0
100
AcDbArc
 50
90.0
 51
180.0
  0
LINE
  5
44
100
AcDbEntity
  8
BORDER
370
    30
390
0
  6
Continuous
 62
    14
100
AcDbLine
 10
-503.417629
 20
227.671755
 30
0.0
 11
-497.417629
 21
227.671755
 31
0.0
  0
ARC
  5
45
100
AcDbEntity
  8
BORDER
370
    30
390
0
  6
Continuous
 62
    14
100
AcDbCircle
 10
-497.417629
 20
224.671755
 30
0.0
 40
7.5
100
AcDbArc
 50
90.0
 51
180.0
  0
LINE
  5
46
100
AcDbEntity
  8
BORDER
370
    30
390
0
  6
Continuous
 62
    14
100
AcDbLine
 10
-504.917629
 20
221.671755
 30
0.0
 11
-504.917629
 21
224.671755
 31
0.0
  0
ARC
  5
47
100
AcDbEntity
  8
BORDER
370
     0
390
0
  6
Continuous
 62
   174
100
AcDbCircle
 10
-497.417363
 20
-796.743548
 30
0.0
 40
6.0
100
AcDbArc
 50
180.0
 51
270.0
  0
ARC
  5
48
100
AcDbEntity
  8
BORDER
370
    30
390
0
  6
Continuous
 62
    14
100
AcDbCircle
 10
-497.417363
 20
-796.743548
 30
0.0
 40
7.5
100
AcDbArc
 50
180.0
 51
270.0
  0
LINE
  5
49
100
AcDbEntity
  8
BORDER
370
     0
390
0
  6
Continuous
 62
   174
100
AcDbLine
 10
-503.417629
 20
221.671755
 30
0.0
 11
-503.417363
 21
-793.743548
 31
0.0
  0
LINE
  5
4A
100
AcDbEntity
  8
BORDER
370
    30
390
0
  6
Continuous
 62
    14
100
AcDbLine
 10
-504.917629
 20
221.671755
 30
0.0
 11
-504.917363
 21
-793.743548
 31
0.0
  0
LINE
  5
4B
100
AcDbEntity
  8
BORDER
370
     0
390
0
  6
Continuous
 62
   174
100
AcDbLine
 10
-507.917629
 20
221.671755
 30
0.0
 11
-507.917363
 21
-793.743548
 31
0.0
  0
LINE
  5
4C
100
AcDbEntity
  8
BORDER
370
    30
390
0
  6
Continuous
 62
    14
100
AcDbLine
 10
-509.417629
 20
221.671755
 30
0.0
 11
-509.417363
 21
-793.743548
 31
0.0
  0
ARC
  5
4D
100
AcDbEntity
  8
0
370
     0
390
0
  6
Continuous
 62
   174
100
AcDbCircle
 10
385.582571
 20
-135.599732
 30
0.0
 40
363.75
100
AcDbArc
 50
222.075022
 51
317.924978
  0
LINE
  5
4E
100
AcDbEntity
  8
0
370
     0
390
0
  6
Continuous
 62
   174
100
AcDbLine
 10
655.582571
 20
-379.349732
 30
0.0
 11
715.582571
 21
-379.349732
 31
0.0
  0
LINE
  5
4F
100
AcDbEntity
  8
0
370
     0
390
0
  6
Continuous
 62
   174
100
AcDbLine
 10
745.582571
 20
-298.349732
 30
0.0
 11
745.582571
 21
-310.349732
 31
0.0
  0
POLYLINE
  5
50
100
AcDbEntity
  8
0
370
     0
390
0
  6
Continuous
 62
   174
100
AcDb2dPolyline
 66
     1
 10
0.0
 20
0.0
 30
0.0
 70
   128
  0
VERTEX
  5
51
100
AcDbEntity
  8
0
370
     0
390
0
  6
Continuous
 62
   174
100
AcDbVertex
100
AcDb2dVertex
 10
754.582571
 20
-304.349732
 30
0.0
  0
VERTEX
  5
52
100
AcDbEntity
  8
0
370
     0
390
0
  6
Continuous
 62
   174
100
AcDbVertex
100
AcDb2dVertex
 10
806.582571
 20
-304.349732
 30
0.0
  0
VERTEX
  5
53
100
AcDbEntity
  8
0
370
     0
390
0
  6
Continuous
 62
   174
100
AcDbVertex
100
AcDb2dVertex
 10
806.582571
 20
-312.349732
 30
0.0
  0
VERTEX
  5
54
100
AcDbEntity
  8
0
370
     0
390
0
  6
Continuous
 62
   174
100
AcDbVertex
100
AcDb2dVertex
 10
782.582571
 20
-312.349732
 30
0.0
  0
VERTEX
  5
55
100
AcDbEntity
  8
0
370
     0
390
0
  6
Continuous
 62
   174
100
AcDbVertex
100
AcDb2dVertex
 10
782.582571
 20
-330.349732
 30
0.0
  0
VERTEX
  5
56
100
AcDbEntity
  8
0
370
     0
390
0
  6
Continuous
 62
   174
100
AcDbVertex
100
AcDb2dVertex
 10
764.582571
 20
-330.349732
 30
0.0
  0
SEQEND
  5
57
100
AcDbEntity
  8
0
370
     0
390
0
  6
Continuous
 62
   174
  0
LINE
  5
58
100
AcDbEntity
  8
0
370
     0
390
0
  6
Continuous
 62
   174
100
AcDbLine
 10
754.582571
 20
-304.349732
 30
0.0
 11
754.582571
 21
-310.349732
 31
0.0
  0
LINE
  5
59
100
AcDbEntity
  8
0
370
     0
390
0
  6
Continuous
 62
   174
100
AcDbLine
 10
754.582571
 20
-310.349732
 30
0.0
 11
764.582571
 21
-330.349732
 31
0.0
  0
LINE
  5
5A
100
AcDbEntity
  8
0
370
     0
390
0
  6
Continuous
 62
   174
100
AcDbLine
 10
745.582571
 20
-298.349732
 30
0.0
 11
814.582571
 21
-298.349732
 31
0.0
  0
LINE
  5
5B
100
AcDbEntity
  8
0
370
     0
390
0
  6
Continuous
 62
   174
100
AcDbLine
 10
814.582571
 20
-298.349732
 30
0.0
 11
814.582571
 21
-328.349732
 31
0.0
  0
LINE
  5
5C
100
AcDbEntity
  8
0
370
     0
390
0
  6
Continuous
 62
   174
100
AcDbLine
 10
759.582571
 20
-336.349732
 30
0.0
 11
745.582571
 21
-310.349732
 31
0.0
  0
LINE
  5
5D
100
AcDbEntity
  8
0
370
     0
390
0
  6
Continuous
 62
   174
100
AcDbLine
 10
820.582571
 20
-328.349732
 30
0.0
 11
820.582571
 21
-336.349732
 31
0.0
  0
LINE
  5
5E
100
AcDbEntity
  8
0
370
     0
390
0
  6
Continuous
 62
   174
100
AcDbLine
 10
814.582571
 20
-328.349732
 30
0.0
 11
820.582571
 21
-328.349732
 31
0.0
  0
LINE
  5
5F
100
AcDbEntity
  8
0
370
     0
390
0
  6
Continuous
 62
   174
100
AcDbLine
 10
759.582571
 20
-336.349732
 30
0.0
 11
820.582571
 21
-336.349732
 31
0.0
  0
LINE
  5
60
100
AcDbEntity
  8
0
370
     0
390
0
  6
Continuous
 62
   174
100
AcDbLine
 10
25.582571
 20
-298.349732
 30
0.0
 11
25.582571
 21
-310.349732
 31
0.0
  0
POLYLINE
  5
61
100
AcDbEntity
  8
0
370
     0
390
0
  6
Continuous
 62
   174
100
AcDb2dPolyline
 66
     1
 10
0.0
 20
0.0
 30
0.0
 70
   128
  0
VERTEX
  5
62
100
AcDbEntity
  8
0
370
     0
390
0
  6
Continuous
 62
   174
100
AcDbVertex
100
AcDb2dVertex
 10
16.582571
 20
-304.349732
 30
0.0
  0
VERTEX
  5
63
100
AcDbEntity
  8
0
370
     0
390
0
  6
Continuous
 62
   174
100
AcDbVertex
100
AcDb2dVertex
 10
-35.417429
 20
-304.349732
 30
0.0
  0
VERTEX
  5
64
100
AcDbEntity
  8
0
370
     0
390
0
  6
Continuous
 62
   174
100
AcDbVertex
100
AcDb2dVertex
 10
-35.417429
 20
-312.349732
 30
0.0
  0
VERTEX
  5
65
100
AcDbEntity
  8
0
370
     0
390
0
  6
Continuous
 62
   174
100
AcDbVertex
100
AcDb2dVertex
 10
-11.417429
 20
-312.349732
 30
0.0
  0
VERTEX
  5
66
100
AcDbEntity
  8
0
370
     0
390
0
  6
Continuous
 62
   174
100
AcDbVertex
100
AcDb2dVertex
 10
-11.417429
 20
-330.349732
 30
0.0
  0
VERTEX
  5
67
100
AcDbEntity
  8
0
370
     0
390
0
  6
Continuous
 62
   174
100
AcDbVertex
100
AcDb2dVertex
 10
6.582571
 20
-330.349732
 30
0.0
  0
SEQEND
  5
68
100
AcDbEntity
  8
0
370
     0
390
0
  6
Continuous
 62
   174
  0
LINE
  5
69
100
AcDbEntity
  8
0
370
     0
390
0
  6
Continuous
 62
   174
100
AcDbLine
 10
16.582571
 20
-304.349732
 30
0.0
 11
16.582571
 21
-310.349732
 31
0.0
  0
LINE
  5
6A
100
AcDbEntity
  8
0
370
     0
390
0
  6
Continuous
 62
   174
100
AcDbLine
 10
16.582571
 20
-310.349732
 30
0.0
 11
6.582571
 21
-330.349732
 31
0.0
  0
LINE
  5
6B
100
AcDbEntity
  8
0
370
     0
390
0
  6
Continuous
 62
   174
100
AcDbLine
 10
25.582571
 20
-298.349732
 30
0.0
 11
-43.417429
 21
-298.349732
 31
0.0
  0
LINE
  5
6C
100
AcDbEntity
  8
0
370
     0
390
0
  6
Continuous
 62
   174
100
AcDbLine
 10
-43.417429
 20
-298.349732
 30
0.0
 11
-43.417429
 21
-328.349732
 31
0.0
  0
LINE
  5
6D
100
AcDbEntity
  8
0
370
     0
390
0
  6
Continuous
 62
   174
100
AcDbLine
 10
11.582571
 20
-336.349732
 30
0.0
 11
25.582571
 21
-310.349732
 31
0.0
  0
LINE
  5
6E
100
AcDbEntity
  8
0
370
     0
390
0
  6
Continuous
 62
   174
100
AcDbLine
 10
-49.417429
 20
-328.349732
 30
0.0
 11
-49.417429
 21
-336.349732
 31
0.0
  0
LINE
  5
6F
100
AcDbEntity
  8
0
370
     0
390
0
  6
Continuous
 62
   174
100
AcDbLine
 10
11.582571
 20
-336.349732
 30
0.0
 11
-49.417429
 21
-336.349732
 31
0.0
  0
LINE
  5
70
100
AcDbEntity
  8
0
370
     0
390
0
  6
Continuous
 62
     7
100
AcDbLine
 10
433.582571
 20
-359.960584
 30
0.0
 11
433.582571
 21
-353.960584
 31
0.0
  0
LINE
  5
71
100
AcDbEntity
  8
0
370
     0
390
0
  6
Continuous
 62
     7
100
AcDbLine
 10
445.582571
 20
-359.960584
 30
0.0
 11
445.582571
 21
-347.960584
 31
0.0
  0
LINE
  5
72
100
AcDbEntity
  8
0
370
     0
390
0
  6
Continuous
 62
     7
100
AcDbLine
 10
457.582571
 20
-359.960584
 30
0.0
 11
457.582571
 21
-353.960584
 31
0.0
  0
LINE
  5
73
100
AcDbEntity
  8
0
370
     0
390
0
  6
Continuous
 62
     7
100
AcDbLine
 10
469.582571
 20
-359.960584
 30
0.0
 11
469.582571
 21
-347.960584
 31
0.0
  0
LINE
  5
74
100
AcDbEntity
  8
0
370
     0
390
0
  6
Continuous
 62
     7
100
AcDbLine
 10
481.582571
 20
-359.960584
 30
0.0
 11
481.582571
 21
-353.960584
 31
0.0
  0
LINE
  5
75
100
AcDbEntity
  8
0
370
     0
390
0
  6
Continuous
 62
     7
100
AcDbLine
 10
493.582571
 20
-359.960584
 30
0.0
 11
493.582571
 21
-347.960584
 31
0.0
  0
LINE
  5
76
100
AcDbEntity
  8
0
370
     0
390
0
  6
Continuous
 62
     7
100
AcDbLine
 10
505.582571
 20
-359.960584
 30
0.0
 11
505.582571
 21
-353.960584
 31
0.0
  0
LINE
  5
77
100
AcDbEntity
  8
0
370
     0
390
0
  6
Continuous
 62
     7
100
AcDbLine
 10
517.582571
 20
-359.960584
 30
0.0
 11
517.582571
 21
-347.960584
 31
0.0
  0
LINE
  5
78
100
AcDbEntity
  8
0
370
     0
390
0
  6
Continuous
 62
     7
100
AcDbLine
 10
529.582571
 20
-359.960584
 30
0.0
 11
529.582571
 21
-353.960584
 31
0.0
  0
LINE
  5
79
100
AcDbEntity
  8
0
370
     0
390
0
  6
Continuous
 62
     7
100
AcDbLine
 10
541.582571
 20
-359.960584
 30
0.0
 11
541.582571
 21
-347.960584
 31
0.0
  0
LINE
  5
7A
100
AcDbEntity
  8
0
370
     0
390
0
  6
Continuous
 62
     7
100
AcDbLine
 10
553.582571
 20
-359.960584
 30
0.0
 11
553.582571
 21
-353.960584
 31
0.0
  0
LINE
  5
7B
100
AcDbEntity
  8
0
370
     0
390
0
  6
Continuous
 62
     7
100
AcDbLine
 10
565.582571
 20
-359.960584
 30
0.0
 11
565.582571
 21
-347.960584
 31
0.0
  0
LINE
  5
7C
100
AcDbEntity
  8
0
370
     0
390
0
  6
Continuous
 62
     7
100
AcDbLine
 10
577.582571
 20
-359.960584
 30
0.0
 11
577.582571
 21
-353.960584
 31
0.0
  0
LINE
  5
7D
100
AcDbEntity
  8
0
370
     0
390
0
  6
Continuous
 62
     7
100
AcDbLine
 10
589.582571
 20
-359.960584
 30
0.0
 11
589.582571
 21
-347.960584
 31
0.0
  0
LINE
  5
7E
100
AcDbEntity
  8
0
370
     0
390
0
  6
Continuous
 62
     7
100
AcDbLine
 10
601.582571
 20
-359.960584
 30
0.0
 11
601.582571
 21
-353.960584
 31
0.0
  0
LINE
  5
7F
100
AcDbEntity
  8
0
370
     0
390
0
  6
Continuous
 62
     7
100
AcDbLine
 10
613.582571
 20
-359.960584
 30
0.0
 11
613.582571
 21
-347.960584
 31
0.0
  0
LINE
  5
80
100
AcDbEntity
  8
0
370
     0
390
0
  6
Continuous
 62
     7
100
AcDbLine
 10
625.582571
 20
-359.960584
 30
0.0
 11
625.582571
 21
-353.960584
 31
0.0
  0
LINE
  5
81
100
AcDbEntity
  8
0
370
     0
390
0
  6
Continuous
 62
     7
100
AcDbLine
 10
637.582571
 20
-359.960584
 30
0.0
 11
637.582571
 21
-347.960584
 31
0.0
  0
LINE
  5
82
100
AcDbEntity
  8
0
370
     0
390
0
  6
Continuous
 62
     7
100
AcDbLine
 10
649.582571
 20
-359.960584
 30
0.0
 11
649.582571
 21
-353.960584
 31
0.0
  0
LINE
  5
83
100
AcDbEntity
  8
0
370
     0
390
0
  6
Continuous
 62
     7
100
AcDbLine
 10
661.582571
 20
-359.960584
 30
0.0
 11
661.582571
 21
-347.960584
 31
0.0
  0
LINE
  5
84
100
AcDbEntity
  8
0
370
     0
390
0
  6
Continuous
 62
     7
100
AcDbLine
 10
373.582571
 20
-359.960584
 30
0.0
 11
373.582571
 21
-347.960584
 31
0.0
  0
LINE
  5
85
100
AcDbEntity
  8
0
370
     0
390
0
  6
Continuous
 62
     7
100
AcDbLine
 10
361.582571
 20
-359.960584
 30
0.0
 11
361.582571
 21
-353.960584
 31
0.0
  0
LINE
  5
86
100
AcDbEntity
  8
0
370
     0
390
0
  6
Continuous
 62
     7
100
AcDbLine
 10
349.582571
 20
-359.960584
 30
0.0
 11
349.582571
 21
-347.960584
 31
0.0
  0
LINE
  5
87
100
AcDbEntity
  8
0
370
     0
390
0
  6
Continuous
 62
     7
100
AcDbLine
 10
337.582571
 20
-359.960584
 30
0.0
 11
337.582571
 21
-353.960584
 31
0.0
  0
LINE
  5
88
100
AcDbEntity
  8
0
370
     0
390
0
  6
Continuous
 62
     7
100
AcDbLine
 10
325.582571
 20
-359.960584
 30
0.0
 11
325.582571
 21
-347.960584
 31
0.0
  0
LINE
  5
89
100
AcDbEntity
  8
0
370
     0
390
0
  6
Continuous
 62
     7
100
AcDbLine
 10
313.582571
 20
-359.960584
 30
0.0
 11
313.582571
 21
-353.960584
 31
0.0
  0
LINE
  5
8A
100
AcDbEntity
  8
0
370
     0
390
0
  6
Continuous
 62
     7
100
AcDbLine
 10
301.582571
 20
-359.960584
 30
0.0
 11
301.582571
 21
-347.960584
 31
0.0
  0
LINE
  5
8B
100
AcDbEntity
  8
0
370
     0
390
0
  6
Continuous
 62
     7
100
AcDbLine
 10
289.582571
 20
-359.960584
 30
0.0
 11
289.582571
 21
-353.960584
 31
0.0
  0
LINE
  5
8C
100
AcDbEntity
  8
0
370
     0
390
0
  6
Continuous
 62
     7
100
AcDbLine
 10
277.582571
 20
-359.960584
 30
0.0
 11
277.582571
 21
-347.960584
 31
0.0
  0
LINE
  5
8D
100
AcDbEntity
  8
0
370
     0
390
0
  6
Continuous
 62
     7
100
AcDbLine
 10
265.582571
 20
-359.960584
 30
0.0
 11
265.582571
 21
-353.960584
 31
0.0
  0
LINE
  5
8E
100
AcDbEntity
  8
0
370
     0
390
0
  6
Continuous
 62
     7
100
AcDbLine
 10
253.582571
 20
-359.960584
 30
0.0
 11
253.582571
 21
-347.960584
 31
0.0
  0
LINE
  5
8F
100
AcDbEntity
  8
0
370
     0
390
0
  6
Continuous
 62
     7
100
AcDbLine
 10
241.582571
 20
-359.960584
 30
0.0
 11
241.582571
 21
-353.960584
 31
0.0
  0
LINE
  5
90
100
AcDbEntity
  8
0
370
     0
390
0
  6
Continuous
 62
     7
100
AcDbLine
 10
229.582571
 20
-359.960584
 30
0.0
 11
229.582571
 21
-347.960584
 31
0.0
  0
LINE
  5
91
100
AcDbEntity
  8
0
370
     0
390
0
  6
Continuous
 62
     7
100
AcDbLine
 10
217.582571
 20
-359.960584
 30
0.0
 11
217.582571
 21
-353.960584
 31
0.0
  0
LINE
  5
92
100
AcDbEntity
  8
0
370
     0
390
0
  6
Continuous
 62
     7
100
AcDbLine
 10
205.582571
 20
-359.960584
 30
0.0
 11
205.582571
 21
-347.960584
 31
0.0
  0
LINE
  5
93
100
AcDbEntity
  8
0
370
     0
390
0
  6
Continuous
 62
     7
100
AcDbLine
 10
193.582571
 20
-359.960584
 30
0.0
 11
193.582571
 21
-353.960584
 31
0.0
  0
LINE
  5
94
100
AcDbEntity
  8
0
370
     0
390
0
  6
Continuous
 62
     7
100
AcDbLine
 10
181.582571
 20
-359.960584
 30
0.0
 11
181.582571
 21
-347.960584
 31
0.0
  0
LINE
  5
95
100
AcDbEntity
  8
0
370
     0
390
0
  6
Continuous
 62
     7
100
AcDbLine
 10
169.582571
 20
-359.960584
 30
0.0
 11
169.582571
 21
-353.960584
 31
0.0
  0
LINE
  5
96
100
AcDbEntity
  8
0
370
     0
390
0
  6
Continuous
 62
     7
100
AcDbLine
 10
157.582571
 20
-359.960584
 30
0.0
 11
157.582571
 21
-347.960584
 31
0.0
  0
LINE
  5
97
100
AcDbEntity
  8
0
370
     0
390
0
  6
Continuous
 62
     7
100
AcDbLine
 10
145.582571
 20
-359.960584
 30
0.0
 11
145.582571
 21
-353.960584
 31
0.0
  0
LINE
  5
98
100
AcDbEntity
  8
0
370
     0
390
0
  6
Continuous
 62
     7
100
AcDbLine
 10
133.582571
 20
-359.960584
 30
0.0
 11
133.582571
 21
-347.960584
 31
0.0
  0
LINE
  5
99
100
AcDbEntity
  8
0
370
     0
390
0
  6
Continuous
 62
     7
100
AcDbLine
 10
121.582571
 20
-359.960584
 30
0.0
 11
121.582571
 21
-353.960584
 31
0.0
  0
LINE
  5
9A
100
AcDbEntity
  8
0
370
     0
390
0
  6
Continuous
 62
     7
100
AcDbLine
 10
109.582571
 20
-359.960584
 30
0.0
 11
109.582571
 21
-347.960584
 31
0.0
  0
LINE
  5
9B
100
AcDbEntity
  8
0
370
     0
390
0
  6
Continuous
 62
     7
100
AcDbLine
 10
673.582571
 20
-359.960584
 30
0.0
 11
673.582571
 21
-353.960584
 31
0.0
  0
LINE
  5
9C
100
AcDbEntity
  8
0
370
     0
390
0
  6
Continuous
 62
     7
100
AcDbLine
 10
685.582571
 20
-359.960584
 30
0.0
 11
685.582571
 21
-347.960584
 31
0.0
  0
LINE
  5
9D
100
AcDbEntity
  8
0
370
     0
390
0
  6
Continuous
 62
     7
100
AcDbLine
 10
697.582571
 20
-359.960584
 30
0.0
 11
697.582571
 21
-353.960584
 31
0.0
  0
LINE
  5
9E
100
AcDbEntity
  8
0
370
     0
390
0
  6
Continuous
 62
     7
100
AcDbLine
 10
709.582571
 20
-359.960584
 30
0.0
 11
709.582571
 21
-347.960584
 31
0.0
  0
LINE
  5
9F
100
AcDbEntity
  8
0
370
     0
390
0
  6
Continuous
 62
     7
100
AcDbLine
 10
721.582571
 20
-359.960584
 30
0.0
 11
721.582571
 21
-353.960584
 31
0.0
  0
LINE
  5
A0
100
AcDbEntity
  8
0
370
     0
390
0
  6
Continuous
 62
     7
100
AcDbLine
 10
97.582571
 20
-359.960584
 30
0.0
 11
97.582571
 21
-353.960584
 31
0.0
  0
LINE
  5
A1
100
AcDbEntity
  8
0
370
     0
390
0
  6
Continuous
 62
     7
100
AcDbLine
 10
85.582571
 20
-359.960584
 30
0.0
 11
85.582571
 21
-347.960584
 31
0.0
  0
LINE
  5
A2
100
AcDbEntity
  8
0
370
     0
390
0
  6
Continuous
 62
     7
100
AcDbLine
 10
73.582571
 20
-359.960584
 30
0.0
 11
73.582571
 21
-353.960584
 31
0.0
  0
LINE
  5
A3
100
AcDbEntity
  8
0
370
     0
390
0
  6
Continuous
 62
     7
100
AcDbLine
 10
61.582571
 20
-359.960584
 30
0.0
 11
61.582571
 21
-347.960584
 31
0.0
  0
LINE
  5
A4
100
AcDbEntity
  8
0
370
     0
390
0
  6
Continuous
 62
     7
100
AcDbLine
 10
49.582571
 20
-359.960584
 30
0.0
 11
49.582571
 21
-353.960584
 31
0.0
  0
LINE
  5
A5
100
AcDbEntity
  8
0
370
     0
390
0
  6
Continuous
 62
     7
100
AcDbLine
 10
397.582571
 20
-359.960584
 30
0.0
 11
397.582571
 21
-347.960584
 31
0.0
  0
LINE
  5
A6
100
AcDbEntity
  8
0
370
     0
390
0
  6
Continuous
 62
     7
100
AcDbLine
 10
409.582571
 20
-359.960584
 30
0.0
 11
409.582571
 21
-353.960584
 31
0.0
  0
LINE
  5
A7
100
AcDbEntity
  8
0
370
     0
390
0
  6
Continuous
 62
     7
100
AcDbLine
 10
421.582571
 20
-359.960584
 30
0.0
 11
421.582571
 21
-347.960584
 31
0.0
  0
LINE
  5
A8
100
AcDbEntity
  8
0
370
     0
390
0
  6
Continuous
 62
     7
100
AcDbLine
 10
385.582571
 20
-359.960584
 30
0.0
 11
49.582571
 21
-359.960584
 31
0.0
  0
LINE
  5
A9
100
AcDbEntity
  8
0
370
     0
390
0
  6
Continuous
 62
     7
100
AcDbLine
 10
385.582571
 20
-359.960584
 30
0.0
 11
721.582571
 21
-359.960584
 31
0.0
  0
POLYLINE
  5
AA
100
AcDbEntity
  8
0
370
     0
390
0
  6
Continuous
 62
   174
100
AcDb2dPolyline
 66
     1
 10
0.0
 20
0.0
 30
0.0
 70
   128
  0
VERTEX
  5
AB
100
AcDbEntity
  8
0
370
     0
390
0
  6
Continuous
 62
   174
100
AcDbVertex
100
AcDb2dVertex
 10
715.582571
 20
-379.349732
 30
0.0
  0
VERTEX
  5
AC
100
AcDbEntity
  8
0
370
     0
390
0
  6
Continuous
 62
   174
100
AcDbVertex
100
AcDb2dVertex
 10
727.582571
 20
-352.349732
 30
0.0
  0
VERTEX
  5
AD
100
AcDbEntity
  8
0
370
     0
390
0
  6
Continuous
 62
   174
100
AcDbVertex
100
AcDb2dVertex
 10
759.582571
 20
-336.349732
 30
0.0
  0
SEQEND
  5
AE
100
AcDbEntity
  8
0
370
     0
390
0
  6
Continuous
 62
   174
  0
LINE
  5
AF
100
AcDbEntity
  8
0
370
     0
390
0
  6
Continuous
 62
   174
100
AcDbLine
 10
115.582571
 20
-379.349732
 30
0.0
 11
55.582571
 21
-379.349732
 31
0.0
  0
POLYLINE
  5
B0
100
AcDbEntity
  8
0
370
     0
390
0
  6
Continuous
 62
   174
100
AcDb2dPolyline
 66
     1
 10
0.0
 20
0.0
 30
0.0
 70
   128
  0
VERTEX
  5
B1
100
AcDbEntity
  8
0
370
     0
390
0
  6
Continuous
 62
   174
100
AcDbVertex
100
AcDb2dVertex
 10
55.582571
 20
-379.349732
 30
0.0
  0
VERTEX
  5
B2
100
AcDbEntity
  8
0
370
     0
390
0
  6
Continuous
 62
   174
100
AcDbVertex
100
AcDb2dVertex
 10
43.582571
 20
-352.349732
 30
0.0
  0
VERTEX
  5
B3
100
AcDbEntity
  8
0
370
     0
390
0
  6
Continuous
 62
   174
100
AcDbVertex
100
AcDb2dVertex
 10
11.582571
 20
-336.349732
 30
0.0
  0
SEQEND
  5
B4
100
AcDbEntity
  8
0
370
     0
390
0
  6
Continuous
 62
   174
  0
INSERT
  5
C0
100
AcDbEntity
  8
0
370
     0
390
0
  6
CENTER
 62
   174
100
AcDbBlockReference
  2
arrwhead
 10
68.582571
 20
-300.099732
 30
0.0
 41
1.0
 42
1.0
 50
45.0
  0
POLYLINE
  5
C1
100
AcDbEntity
  8
0
370
     0
390
0
  6
Continuous
 62
   174
100
AcDb2dPolyline
 66
     1
 10
0.0
 20
0.0
 30
0.0
 70
     4
  0
VERTEX
  5
C2
100
AcDbEntity
  8
0
370
     0
390
0
  6
Continuous
 62
   174
100
AcDbVertex
100
AcDb2dVertex
 10
68.582571
 20
-299.849732
 30
0.0
  0
VERTEX
  5
C3
100
AcDbEntity
  8
0
370
     0
390
0
  6
Continuous
 62
   174
100
AcDbVertex
100
AcDb2dVertex
 10
68.557446
 20
-299.869614
 30
0.0
 70
     8
  0
VERTEX
  5
C4
100
AcDbEntity
  8
0
370
     0
390
0
  6
Continuous
 62
   174
100
AcDbVertex
100
AcDb2dVertex
 10
68.53208
 20
-299.889268
 30
0.0
 70
     8
  0
VERTEX
  5
C5
100
AcDbEntity
  8
0
370
     0
390
0
  6
Continuous
 62
   174
100
AcDbVertex
100
AcDb2dVertex
 10
68.506488
 20
-299.90871
 30
0.0
 70
     8
  0
VERTEX
  5
C6
100
AcDbEntity
  8
0
370
     0
390
0
  6
Continuous
 62
   174
100
AcDbVertex
100
AcDb2dVertex
 10
68.480687
 20
-299.927954
 30
0.0
 70
     8
  0
VERTEX
  5
C7
100
AcDbEntity
  8
0
370
     0
390
0
  6
Continuous
 62
   174
100
AcDbVertex
100
AcDb2dVertex
 10
68.454691
 20
-299.947015
 30
0.0
 70
     8
  0
VERTEX
  5
C8
100
AcDbEntity
  8
0
370
     0
390
0
  6
Continuous
 62
   174
100
AcDbVertex
100
AcDb2dVertex
 10
68.428515
 20
-299.965906
 30
0.0
 70
     8
  0
VERTEX
  5
C9
100
AcDbEntity
  8
0
370
     0
390
0
  6
Continuous
 62
   174
100
AcDbVertex
100
AcDb2dVertex
 10
68.402176
 20
-299.984643
 30
0.0
 70
     8
  0
VERTEX
  5
CA
100
AcDbEntity
  8
0
370
     0
390
0
  6
Continuous
 62
   174
100
AcDbVertex
100
AcDb2dVertex
 10
68.375689
 20
-300.00324
 30
0.0
 70
     8
  0
VERTEX
  5
CB
100
AcDbEntity
  8
0
370
     0
390
0
  6
Continuous
 62
   174
100
AcDbVertex
100
AcDb2dVertex
 10
68.349068
 20
-300.021711
 30
0.0
 70
     8
  0
VERTEX
  5
CC
100
AcDbEntity
  8
0
370
     0
390
0
  6
Continuous
 62
   174
100
AcDbVertex
100
AcDb2dVertex
 10
68.322329
 20
-300.040071
 30
0.0
 70
     8
  0
VERTEX
  5
CD
100
AcDbEntity
  8
0
370
     0
390
0
  6
Continuous
 62
   174
100
AcDbVertex
100
AcDb2dVertex
 10
68.295488
 20
-300.058335
 30
0.0
 70
     8
  0
VERTEX
  5
CE
100
AcDbEntity
  8
0
370
     0
390
0
  6
Continuous
 62
   174
100
AcDbVertex
100
AcDb2dVertex
 10
68.26856
 20
-300.076516
 30
0.0
 70
     8
  0
VERTEX
  5
CF
100
AcDbEntity
  8
0
370
     0
390
0
  6
Continuous
 62
   174
100
AcDbVertex
100
AcDb2dVertex
 10
68.24156
 20
-300.09463
 30
0.0
 70
     8
  0
VERTEX
  5
D0
100
AcDbEntity
  8
0
370
     0
390
0
  6
Continuous
 62
   174
100
AcDbVertex
100
AcDb2dVertex
 10
68.214504
 20
-300.11269
 30
0.0
 70
     8
  0
VERTEX
  5
D1
100
AcDbEntity
  8
0
370
     0
390
0
  6
Continuous
 62
   174
100
AcDbVertex
100
AcDb2dVertex
 10
68.187407
 20
-300.130712
 30
0.0
 70
     8
  0
VERTEX
  5
D2
100
AcDbEntity
  8
0
370
     0
390
0
  6
Continuous
 62
   174
100
AcDbVertex
100
AcDb2dVertex
 10
68.160284
 20
-300.14871
 30
0.0
 70
     8
  0
VERTEX
  5
D3
100
AcDbEntity
  8
0
370
     0
390
0
  6
Continuous
 62
   174
100
AcDbVertex
100
AcDb2dVertex
 10
68.133151
 20
-300.166698
 30
0.0
 70
     8
  0
VERTEX
  5
D4
100
AcDbEntity
  8
0
370
     0
390
0
  6
Continuous
 62
   174
100
AcDbVertex
100
AcDb2dVertex
 10
68.106023
 20
-300.184691
 30
0.0
 70
     8
  0
VERTEX
  5
D5
100
AcDbEntity
  8
0
370
     0
390
0
  6
Continuous
 62
   174
100
AcDbVertex
100
AcDb2dVertex
 10
68.078916
 20
-300.202703
 30
0.0
 70
     8
  0
VERTEX
  5
D6
100
AcDbEntity
  8
0
370
     0
390
0
  6
Continuous
 62
   174
100
AcDbVertex
100
AcDb2dVertex
 10
68.051845
 20
-300.220749
 30
0.0
 70
     8
  0
VERTEX
  5
D7
100
AcDbEntity
  8
0
370
     0
390
0
  6
Continuous
 62
   174
100
AcDbVertex
100
AcDb2dVertex
 10
68.024824
 20
-300.238844
 30
0.0
 70
     8
  0
VERTEX
  5
D8
100
AcDbEntity
  8
0
370
     0
390
0
  6
Continuous
 62
   174
100
AcDbVertex
100
AcDb2dVertex
 10
67.997871
 20
-300.257001
 30
0.0
 70
     8
  0
VERTEX
  5
D9
100
AcDbEntity
  8
0
370
     0
390
0
  6
Continuous
 62
   174
100
AcDbVertex
100
AcDb2dVertex
 10
67.970999
 20
-300.275235
 30
0.0
 70
     8
  0
VERTEX
  5
DA
100
AcDbEntity
  8
0
370
     0
390
0
  6
Continuous
 62
   174
100
AcDbVertex
100
AcDb2dVertex
 10
67.944224
 20
-300.293562
 30
0.0
 70
     8
  0
VERTEX
  5
DB
100
AcDbEntity
  8
0
370
     0
390
0
  6
Continuous
 62
   174
100
AcDbVertex
100
AcDb2dVertex
 10
67.917563
 20
-300.311994
 30
0.0
 70
     8
  0
VERTEX
  5
DC
100
AcDbEntity
  8
0
370
     0
390
0
  6
Continuous
 62
   174
100
AcDbVertex
100
AcDb2dVertex
 10
67.891029
 20
-300.330548
 30
0.0
 70
     8
  0
VERTEX
  5
DD
100
AcDbEntity
  8
0
370
     0
390
0
  6
Continuous
 62
   174
100
AcDbVertex
100
AcDb2dVertex
 10
67.864638
 20
-300.349236
 30
0.0
 70
     8
  0
VERTEX
  5
DE
100
AcDbEntity
  8
0
370
     0
390
0
  6
Continuous
 62
   174
100
AcDbVertex
100
AcDb2dVertex
 10
67.838407
 20
-300.368074
 30
0.0
 70
     8
  0
VERTEX
  5
DF
100
AcDbEntity
  8
0
370
     0
390
0
  6
Continuous
 62
   174
100
AcDbVertex
100
AcDb2dVertex
 10
67.812349
 20
-300.387077
 30
0.0
 70
     8
  0
VERTEX
  5
E0
100
AcDbEntity
  8
0
370
     0
390
0
  6
Continuous
 62
   174
100
AcDbVertex
100
AcDb2dVertex
 10
67.786481
 20
-300.406258
 30
0.0
 70
     8
  0
VERTEX
  5
E1
100
AcDbEntity
  8
0
370
     0
390
0
  6
Continuous
 62
   174
100
AcDbVertex
100
AcDb2dVertex
 10
67.760818
 20
-300.425633
 30
0.0
 70
     8
  0
VERTEX
  5
E2
100
AcDbEntity
  8
0
370
     0
390
0
  6
Continuous
 62
   174
100
AcDbVertex
100
AcDb2dVertex
 10
67.735375
 20
-300.445215
 30
0.0
 70
     8
  0
VERTEX
  5
E3
100
AcDbEntity
  8
0
370
     0
390
0
  6
Continuous
 62
   174
100
AcDbVertex
100
AcDb2dVertex
 10
67.710168
 20
-300.465019
 30
0.0
 70
     8
  0
VERTEX
  5
E4
100
AcDbEntity
  8
0
370
     0
390
0
  6
Continuous
 62
   174
100
AcDbVertex
100
AcDb2dVertex
 10
67.685211
 20
-300.48506
 30
0.0
 70
     8
  0
VERTEX
  5
E5
100
AcDbEntity
  8
0
370
     0
390
0
  6
Continuous
 62
   174
100
AcDbVertex
100
AcDb2dVertex
 10
67.660521
 20
-300.505352
 30
0.0
 70
     8
  0
VERTEX
  5
E6
100
AcDbEntity
  8
0
370
     0
390
0
  6
Continuous
 62
   174
100
AcDbVertex
100
AcDb2dVertex
 10
67.636112
 20
-300.52591
 30
0.0
 70
     8
  0
VERTEX
  5
E7
100
AcDbEntity
  8
0
370
     0
390
0
  6
Continuous
 62
   174
100
AcDbVertex
100
AcDb2dVertex
 10
67.612001
 20
-300.546748
 30
0.0
 70
     8
  0
VERTEX
  5
E8
100
AcDbEntity
  8
0
370
     0
390
0
  6
Continuous
 62
   174
100
AcDbVertex
100
AcDb2dVertex
 10
67.588202
 20
-300.567881
 30
0.0
 70
     8
  0
VERTEX
  5
E9
100
AcDbEntity
  8
0
370
     0
390
0
  6
Continuous
 62
   174
100
AcDbVertex
100
AcDb2dVertex
 10
67.564731
 20
-300.589323
 30
0.0
 70
     8
  0
VERTEX
  5
EA
100
AcDbEntity
  8
0
370
     0
390
0
  6
Continuous
 62
   174
100
AcDbVertex
100
AcDb2dVertex
 10
67.541602
 20
-300.611089
 30
0.0
 70
     8
  0
VERTEX
  5
EB
100
AcDbEntity
  8
0
370
     0
390
0
  6
Continuous
 62
   174
100
AcDbVertex
100
AcDb2dVertex
 10
67.518833
 20
-300.633192
 30
0.0
 70
     8
  0
VERTEX
  5
EC
100
AcDbEntity
  8
0
370
     0
390
0
  6
Continuous
 62
   174
100
AcDbVertex
100
AcDb2dVertex
 10
67.496437
 20
-300.655648
 30
0.0
 70
     8
  0
VERTEX
  5
ED
100
AcDbEntity
  8
0
370
     0
390
0
  6
Continuous
 62
   174
100
AcDbVertex
100
AcDb2dVertex
 10
67.47443
 20
-300.678472
 30
0.0
 70
     8
  0
VERTEX
  5
EE
100
AcDbEntity
  8
0
370
     0
390
0
  6
Continuous
 62
   174
100
AcDbVertex
100
AcDb2dVertex
 10
67.452828
 20
-300.701677
 30
0.0
 70
     8
  0
VERTEX
  5
EF
100
AcDbEntity
  8
0
370
     0
390
0
  6
Continuous
 62
   174
100
AcDbVertex
100
AcDb2dVertex
 10
67.431646
 20
-300.725278
 30
0.0
 70
     8
  0
VERTEX
  5
F0
100
AcDbEntity
  8
0
370
     0
390
0
  6
Continuous
 62
   174
100
AcDbVertex
100
AcDb2dVertex
 10
67.410899
 20
-300.74929
 30
0.0
 70
     8
  0
VERTEX
  5
F1
100
AcDbEntity
  8
0
370
     0
390
0
  6
Continuous
 62
   174
100
AcDbVertex
100
AcDb2dVertex
 10
67.390602
 20
-300.773726
 30
0.0
 70
     8
  0
VERTEX
  5
F2
100
AcDbEntity
  8
0
370
     0
390
0
  6
Continuous
 62
   174
100
AcDbVertex
100
AcDb2dVertex
 10
67.370772
 20
-300.798603
 30
0.0
 70
     8
  0
VERTEX
  5
F3
100
AcDbEntity
  8
0
370
     0
390
0
  6
Continuous
 62
   174
100
AcDbVertex
100
AcDb2dVertex
 10
67.351423
 20
-300.823933
 30
0.0
 70
     8
  0
VERTEX
  5
F4
100
AcDbEntity
  8
0
370
     0
390
0
  6
Continuous
 62
   174
100
AcDbVertex
100
AcDb2dVertex
 10
67.332571
 20
-300.849732
 30
0.0
  0
VERTEX
  5
F5
100
AcDbEntity
  8
0
370
     0
390
0
  6
Continuous
 62
   174
100
AcDbVertex
100
AcDb2dVertex
 10
67.332571
 20
-300.849732
 30
0.0
  0
VERTEX
  5
F6
100
AcDbEntity
  8
0
370
     0
390
0
  6
Continuous
 62
   174
100
AcDbVertex
100
AcDb2dVertex
 10
67.324139
 20
-300.862049
 30
0.0
 70
     8
  0
VERTEX
  5
F7
100
AcDbEntity
  8
0
370
     0
390
0
  6
Continuous
 62
   174
100
AcDbVertex
100
AcDb2dVertex
 10
67.31626
 20
-300.874597
 30
0.0
 70
     8
  0
VERTEX
  5
F8
100
AcDbEntity
  8
0
370
     0
390
0
  6
Continuous
 62
   174
100
AcDbVertex
100
AcDb2dVertex
 10
67.308922
 20
-300.887368
 30
0.0
 70
     8
  0
VERTEX
  5
F9
100
AcDbEntity
  8
0
370
     0
390
0
  6
Continuous
 62
   174
100
AcDbVertex
100
AcDb2dVertex
 10
67.302112
 20
-300.900355
 30
0.0
 70
     8
  0
VERTEX
  5
FA
100
AcDbEntity
  8
0
370
     0
390
0
  6
Continuous
 62
   174
100
AcDbVertex
100
AcDb2dVertex
 10
67.295816
 20
-300.91355
 30
0.0
 70
     8
  0
VERTEX
  5
FB
100
AcDbEntity
  8
0
370
     0
390
0
  6
Continuous
 62
   174
100
AcDbVertex
100
AcDb2dVertex
 10
67.290022
 20
-300.926945
 30
0.0
 70
     8
  0
VERTEX
  5
FC
100
AcDbEntity
  8
0
370
     0
390
0
  6
Continuous
 62
   174
100
AcDbVertex
100
AcDb2dVertex
 10
67.284716
 20
-300.940534
 30
0.0
 70
     8
  0
VERTEX
  5
FD
100
AcDbEntity
  8
0
370
     0
390
0
  6
Continuous
 62
   174
100
AcDbVertex
100
AcDb2dVertex
 10
67.279885
 20
-300.954307
 30
0.0
 70
     8
  0
VERTEX
  5
FE
100
AcDbEntity
  8
0
370
     0
390
0
  6
Continuous
 62
   174
100
AcDbVertex
100
AcDb2dVertex
 10
67.275516
 20
-300.968258
 30
0.0
 70
     8
  0
VERTEX
  5
FF
100
AcDbEntity
  8
0
370
     0
390
0
  6
Continuous
 62
   174
100
AcDbVertex
100
AcDb2dVertex
 10
67.271596
 20
-300.982379
 30
0.0
 70
     8
  0
VERTEX
  5
100
100
AcDbEntity
  8
0
370
     0
390
0
  6
Continuous
 62
   174
100
AcDbVertex
100
AcDb2dVertex
 10
67.268113
 20
-300.996663
 30
0.0
 70
     8
  0
VERTEX
  5
101
100
AcDbEntity
  8
0
370
     0
390
0
  6
Continuous
 62
   174
100
AcDbVertex
100
AcDb2dVertex
 10
67.265052
 20
-301.011102
 30
0.0
 70
     8
  0
VERTEX
  5
102
100
AcDbEntity
  8
0
370
     0
390
0
  6
Continuous
 62
   174
100
AcDbVertex
100
AcDb2dVertex
 10
67.2624
 20
-301.025688
 30
0.0
 70
     8
  0
VERTEX
  5
103
100
AcDbEntity
  8
0
370
     0
390
0
  6
Continuous
 62
   174
100
AcDbVertex
100
AcDb2dVertex
 10
67.260146
 20
-301.040414
 30
0.0
 70
     8
  0
VERTEX
  5
104
100
AcDbEntity
  8
0
370
     0
390
0
  6
Continuous
 62
   174
100
AcDbVertex
100
AcDb2dVertex
 10
67.258275
 20
-301.055272
 30
0.0
 70
     8
  0
VERTEX
  5
105
100
AcDbEntity
  8
0
370
     0
390
0
  6
Continuous
 62
   174
100
AcDbVertex
100
AcDb2dVertex
 10
67.256774
 20
-301.070255
 30
0.0
 70
     8
  0
VERTEX
  5
106
100
AcDbEntity
  8
0
370
     0
390
0
  6
Continuous
 62
   174
100
AcDbVertex
100
AcDb2dVertex
 10
67.25563
 20
-301.085355
 30
0.0
 70
     8
  0
VERTEX
  5
107
100
AcDbEntity
  8
0
370
     0
390
0
  6
Continuous
 62
   174
100
AcDbVertex
100
AcDb2dVertex
 10
67.254831
 20
-301.100565
 30
0.0
 70
     8
  0
VERTEX
  5
108
100
AcDbEntity
  8
0
370
     0
390
0
  6
Continuous
 62
   174
100
AcDbVertex
100
AcDb2dVertex
 10
67.254363
 20
-301.115876
 30
0.0
 70
     8
  0
VERTEX
  5
109
100
AcDbEntity
  8
0
370
     0
390
0
  6
Continuous
 62
   174
100
AcDbVertex
100
AcDb2dVertex
 10
67.254213
 20
-301.131282
 30
0.0
 70
     8
  0
VERTEX
  5
10A
100
AcDbEntity
  8
0
370
     0
390
0
  6
Continuous
 62
   174
100
AcDbVertex
100
AcDb2dVertex
 10
67.254367
 20
-301.146774
 30
0.0
 70
     8
  0
VERTEX
  5
10B
100
AcDbEntity
  8
0
370
     0
390
0
  6
Continuous
 62
   174
100
AcDbVertex
100
AcDb2dVertex
 10
67.254814
 20
-301.162346
 30
0.0
 70
     8
  0
VERTEX
  5
10C
100
AcDbEntity
  8
0
370
     0
390
0
  6
Continuous
 62
   174
100
AcDbVertex
100
AcDb2dVertex
 10
67.255539
 20
-301.177989
 30
0.0
 70
     8
  0
VERTEX
  5
10D
100
AcDbEntity
  8
0
370
     0
390
0
  6
Continuous
 62
   174
100
AcDbVertex
100
AcDb2dVertex
 10
67.256529
 20
-301.193697
 30
0.0
 70
     8
  0
VERTEX
  5
10E
100
AcDbEntity
  8
0
370
     0
390
0
  6
Continuous
 62
   174
100
AcDbVertex
100
AcDb2dVertex
 10
67.257773
 20
-301.20946
 30
0.0
 70
     8
  0
VERTEX
  5
10F
100
AcDbEntity
  8
0
370
     0
390
0
  6
Continuous
 62
   174
100
AcDbVertex
100
AcDb2dVertex
 10
67.259255
 20
-301.225273
 30
0.0
 70
     8
  0
VERTEX
  5
110
100
AcDbEntity
  8
0
370
     0
390
0
  6
Continuous
 62
   174
100
AcDbVertex
100
AcDb2dVertex
 10
67.260964
 20
-301.241127
 30
0.0
 70
     8
  0
VERTEX
  5
111
100
AcDbEntity
  8
0
370
     0
390
0
  6
Continuous
 62
   174
100
AcDbVertex
100
AcDb2dVertex
 10
67.262886
 20
-301.257015
 30
0.0
 70
     8
  0
VERTEX
  5
112
100
AcDbEntity
  8
0
370
     0
390
0
  6
Continuous
 62
   174
100
AcDbVertex
100
AcDb2dVertex
 10
67.265008
 20
-301.272928
 30
0.0
 70
     8
  0
VERTEX
  5
113
100
AcDbEntity
  8
0
370
     0
390
0
  6
Continuous
 62
   174
100
AcDbVertex
100
AcDb2dVertex
 10
67.267316
 20
-301.288861
 30
0.0
 70
     8
  0
VERTEX
  5
114
100
AcDbEntity
  8
0
370
     0
390
0
  6
Continuous
 62
   174
100
AcDbVertex
100
AcDb2dVertex
 10
67.269799
 20
-301.304804
 30
0.0
 70
     8
  0
VERTEX
  5
115
100
AcDbEntity
  8
0
370
     0
390
0
  6
Continuous
 62
   174
100
AcDbVertex
100
AcDb2dVertex
 10
67.272443
 20
-301.320751
 30
0.0
 70
     8
  0
VERTEX
  5
116
100
AcDbEntity
  8
0
370
     0
390
0
  6
Continuous
 62
   174
100
AcDbVertex
100
AcDb2dVertex
 10
67.275234
 20
-301.336693
 30
0.0
 70
     8
  0
VERTEX
  5
117
100
AcDbEntity
  8
0
370
     0
390
0
  6
Continuous
 62
   174
100
AcDbVertex
100
AcDb2dVertex
 10
67.278159
 20
-301.352624
 30
0.0
 70
     8
  0
VERTEX
  5
118
100
AcDbEntity
  8
0
370
     0
390
0
  6
Continuous
 62
   174
100
AcDbVertex
100
AcDb2dVertex
 10
67.281206
 20
-301.368535
 30
0.0
 70
     8
  0
VERTEX
  5
119
100
AcDbEntity
  8
0
370
     0
390
0
  6
Continuous
 62
   174
100
AcDbVertex
100
AcDb2dVertex
 10
67.284361
 20
-301.38442
 30
0.0
 70
     8
  0
VERTEX
  5
11A
100
AcDbEntity
  8
0
370
     0
390
0
  6
Continuous
 62
   174
100
AcDbVertex
100
AcDb2dVertex
 10
67.287612
 20
-301.40027
 30
0.0
 70
     8
  0
VERTEX
  5
11B
100
AcDbEntity
  8
0
370
     0
390
0
  6
Continuous
 62
   174
100
AcDbVertex
100
AcDb2dVertex
 10
67.290945
 20
-301.416078
 30
0.0
 70
     8
  0
VERTEX
  5
11C
100
AcDbEntity
  8
0
370
     0
390
0
  6
Continuous
 62
   174
100
AcDbVertex
100
AcDb2dVertex
 10
67.294346
 20
-301.431836
 30
0.0
 70
     8
  0
VERTEX
  5
11D
100
AcDbEntity
  8
0
370
     0
390
0
  6
Continuous
 62
   174
100
AcDbVertex
100
AcDb2dVertex
 10
67.297804
 20
-301.447537
 30
0.0
 70
     8
  0
VERTEX
  5
11E
100
AcDbEntity
  8
0
370
     0
390
0
  6
Continuous
 62
   174
100
AcDbVertex
100
AcDb2dVertex
 10
67.301304
 20
-301.463173
 30
0.0
 70
     8
  0
VERTEX
  5
11F
100
AcDbEntity
  8
0
370
     0
390
0
  6
Continuous
 62
   174
100
AcDbVertex
100
AcDb2dVertex
 10
67.304834
 20
-301.478737
 30
0.0
 70
     8
  0
VERTEX
  5
120
100
AcDbEntity
  8
0
370
     0
390
0
  6
Continuous
 62
   174
100
AcDbVertex
100
AcDb2dVertex
 10
67.308381
 20
-301.494221
 30
0.0
 70
     8
  0
VERTEX
  5
121
100
AcDbEntity
  8
0
370
     0
390
0
  6
Continuous
 62
   174
100
AcDbVertex
100
AcDb2dVertex
 10
67.311931
 20
-301.509617
 30
0.0
 70
     8
  0
VERTEX
  5
122
100
AcDbEntity
  8
0
370
     0
390
0
  6
Continuous
 62
   174
100
AcDbVertex
100
AcDb2dVertex
 10
67.315472
 20
-301.524918
 30
0.0
 70
     8
  0
VERTEX
  5
123
100
AcDbEntity
  8
0
370
     0
390
0
  6
Continuous
 62
   174
100
AcDbVertex
100
AcDb2dVertex
 10
67.318989
 20
-301.540117
 30
0.0
 70
     8
  0
VERTEX
  5
124
100
AcDbEntity
  8
0
370
     0
390
0
  6
Continuous
 62
   174
100
AcDbVertex
100
AcDb2dVertex
 10
67.322471
 20
-301.555205
 30
0.0
 70
     8
  0
VERTEX
  5
125
100
AcDbEntity
  8
0
370
     0
390
0
  6
Continuous
 62
   174
100
AcDbVertex
100
AcDb2dVertex
 10
67.325904
 20
-301.570175
 30
0.0
 70
     8
  0
VERTEX
  5
126
100
AcDbEntity
  8
0
370
     0
390
0
  6
Continuous
 62
   174
100
AcDbVertex
100
AcDb2dVertex
 10
67.329275
 20
-301.58502
 30
0.0
 70
     8
  0
VERTEX
  5
127
100
AcDbEntity
  8
0
370
     0
390
0
  6
Continuous
 62
   174
100
AcDbVertex
100
AcDb2dVertex
 10
67.332571
 20
-301.599732
 30
0.0
  0
VERTEX
  5
128
100
AcDbEntity
  8
0
370
     0
390
0
  6
Continuous
 62
   174
100
AcDbVertex
100
AcDb2dVertex
 10
67.332571
 20
-301.599732
 30
0.0
  0
VERTEX
  5
129
100
AcDbEntity
  8
0
370
     0
390
0
  6
Continuous
 62
   174
100
AcDbVertex
100
AcDb2dVertex
 10
67.33963
 20
-301.630547
 30
0.0
 70
     8
  0
VERTEX
  5
12A
100
AcDbEntity
  8
0
370
     0
390
0
  6
Continuous
 62
   174
100
AcDbVertex
100
AcDb2dVertex
 10
67.347075
 20
-301.661258
 30
0.0
 70
     8
  0
VERTEX
  5
12B
100
AcDbEntity
  8
0
370
     0
390
0
  6
Continuous
 62
   174
100
AcDbVertex
100
AcDb2dVertex
 10
67.35489
 20
-301.691867
 30
0.0
 70
     8
  0
VERTEX
  5
12C
100
AcDbEntity
  8
0
370
     0
390
0
  6
Continuous
 62
   174
100
AcDbVertex
100
AcDb2dVertex
 10
67.363059
 20
-301.72238
 30
0.0
 70
     8
  0
VERTEX
  5
12D
100
AcDbEntity
  8
0
370
     0
390
0
  6
Continuous
 62
   174
100
AcDbVertex
100
AcDb2dVertex
 10
67.371563
 20
-301.7528
 30
0.0
 70
     8
  0
VERTEX
  5
12E
100
AcDbEntity
  8
0
370
     0
390
0
  6
Continuous
 62
   174
100
AcDbVertex
100
AcDb2dVertex
 10
67.380388
 20
-301.783134
 30
0.0
 70
     8
  0
VERTEX
  5
12F
100
AcDbEntity
  8
0
370
     0
390
0
  6
Continuous
 62
   174
100
AcDbVertex
100
AcDb2dVertex
 10
67.389516
 20
-301.813385
 30
0.0
 70
     8
  0
VERTEX
  5
130
100
AcDbEntity
  8
0
370
     0
390
0
  6
Continuous
 62
   174
100
AcDbVertex
100
AcDb2dVertex
 10
67.39893
 20
-301.843557
 30
0.0
 70
     8
  0
VERTEX
  5
131
100
AcDbEntity
  8
0
370
     0
390
0
  6
Continuous
 62
   174
100
AcDbVertex
100
AcDb2dVertex
 10
67.408615
 20
-301.873655
 30
0.0
 70
     8
  0
VERTEX
  5
132
100
AcDbEntity
  8
0
370
     0
390
0
  6
Continuous
 62
   174
100
AcDbVertex
100
AcDb2dVertex
 10
67.418552
 20
-301.903684
 30
0.0
 70
     8
  0
VERTEX
  5
133
100
AcDbEntity
  8
0
370
     0
390
0
  6
Continuous
 62
   174
100
AcDbVertex
100
AcDb2dVertex
 10
67.428726
 20
-301.933649
 30
0.0
 70
     8
  0
VERTEX
  5
134
100
AcDbEntity
  8
0
370
     0
390
0
  6
Continuous
 62
   174
100
AcDbVertex
100
AcDb2dVertex
 10
67.439121
 20
-301.963552
 30
0.0
 70
     8
  0
VERTEX
  5
135
100
AcDbEntity
  8
0
370
     0
390
0
  6
Continuous
 62
   174
100
AcDbVertex
100
AcDb2dVertex
 10
67.449718
 20
-301.993401
 30
0.0
 70
     8
  0
VERTEX
  5
136
100
AcDbEntity
  8
0
370
     0
390
0
  6
Continuous
 62
   174
100
AcDbVertex
100
AcDb2dVertex
 10
67.460502
 20
-302.023197
 30
0.0
 70
     8
  0
VERTEX
  5
137
100
AcDbEntity
  8
0
370
     0
390
0
  6
Continuous
 62
   174
100
AcDbVertex
100
AcDb2dVertex
 10
67.471456
 20
-302.052947
 30
0.0
 70
     8
  0
VERTEX
  5
138
100
AcDbEntity
  8
0
370
     0
390
0
  6
Continuous
 62
   174
100
AcDbVertex
100
AcDb2dVertex
 10
67.482564
 20
-302.082655
 30
0.0
 70
     8
  0
VERTEX
  5
139
100
AcDbEntity
  8
0
370
     0
390
0
  6
Continuous
 62
   174
100
AcDbVertex
100
AcDb2dVertex
 10
67.493808
 20
-302.112325
 30
0.0
 70
     8
  0
VERTEX
  5
13A
100
AcDbEntity
  8
0
370
     0
390
0
  6
Continuous
 62
   174
100
AcDbVertex
100
AcDb2dVertex
 10
67.505172
 20
-302.141961
 30
0.0
 70
     8
  0
VERTEX
  5
13B
100
AcDbEntity
  8
0
370
     0
390
0
  6
Continuous
 62
   174
100
AcDbVertex
100
AcDb2dVertex
 10
67.51664
 20
-302.171569
 30
0.0
 70
     8
  0
VERTEX
  5
13C
100
AcDbEntity
  8
0
370
     0
390
0
  6
Continuous
 62
   174
100
AcDbVertex
100
AcDb2dVertex
 10
67.528195
 20
-302.201152
 30
0.0
 70
     8
  0
VERTEX
  5
13D
100
AcDbEntity
  8
0
370
     0
390
0
  6
Continuous
 62
   174
100
AcDbVertex
100
AcDb2dVertex
 10
67.539819
 20
-302.230716
 30
0.0
 70
     8
  0
VERTEX
  5
13E
100
AcDbEntity
  8
0
370
     0
390
0
  6
Continuous
 62
   174
100
AcDbVertex
100
AcDb2dVertex
 10
67.551497
 20
-302.260265
 30
0.0
 70
     8
  0
VERTEX
  5
13F
100
AcDbEntity
  8
0
370
     0
390
0
  6
Continuous
 62
   174
100
AcDbVertex
100
AcDb2dVertex
 10
67.563212
 20
-302.289802
 30
0.0
 70
     8
  0
VERTEX
  5
140
100
AcDbEntity
  8
0
370
     0
390
0
  6
Continuous
 62
   174
100
AcDbVertex
100
AcDb2dVertex
 10
67.574947
 20
-302.319334
 30
0.0
 70
     8
  0
VERTEX
  5
141
100
AcDbEntity
  8
0
370
     0
390
0
  6
Continuous
 62
   174
100
AcDbVertex
100
AcDb2dVertex
 10
67.586685
 20
-302.348864
 30
0.0
 70
     8
  0
VERTEX
  5
142
100
AcDbEntity
  8
0
370
     0
390
0
  6
Continuous
 62
   174
100
AcDbVertex
100
AcDb2dVertex
 10
67.59841
 20
-302.378396
 30
0.0
 70
     8
  0
VERTEX
  5
143
100
AcDbEntity
  8
0
370
     0
390
0
  6
Continuous
 62
   174
100
AcDbVertex
100
AcDb2dVertex
 10
67.610106
 20
-302.407936
 30
0.0
 70
     8
  0
VERTEX
  5
144
100
AcDbEntity
  8
0
370
     0
390
0
  6
Continuous
 62
   174
100
AcDbVertex
100
AcDb2dVertex
 10
67.621755
 20
-302.437488
 30
0.0
 70
     8
  0
VERTEX
  5
145
100
AcDbEntity
  8
0
370
     0
390
0
  6
Continuous
 62
   174
100
AcDbVertex
100
AcDb2dVertex
 10
67.63334
 20
-302.467055
 30
0.0
 70
     8
  0
VERTEX
  5
146
100
AcDbEntity
  8
0
370
     0
390
0
  6
Continuous
 62
   174
100
AcDbVertex
100
AcDb2dVertex
 10
67.644847
 20
-302.496644
 30
0.0
 70
     8
  0
VERTEX
  5
147
100
AcDbEntity
  8
0
370
     0
390
0
  6
Continuous
 62
   174
100
AcDbVertex
100
AcDb2dVertex
 10
67.656256
 20
-302.526258
 30
0.0
 70
     8
  0
VERTEX
  5
148
100
AcDbEntity
  8
0
370
     0
390
0
  6
Continuous
 62
   174
100
AcDbVertex
100
AcDb2dVertex
 10
67.667553
 20
-302.555902
 30
0.0
 70
     8
  0
VERTEX
  5
149
100
AcDbEntity
  8
0
370
     0
390
0
  6
Continuous
 62
   174
100
AcDbVertex
100
AcDb2dVertex
 10
67.67872
 20
-302.58558
 30
0.0
 70
     8
  0
VERTEX
  5
14A
100
AcDbEntity
  8
0
370
     0
390
0
  6
Continuous
 62
   174
100
AcDbVertex
100
AcDb2dVertex
 10
67.68974
 20
-302.615297
 30
0.0
 70
     8
  0
VERTEX
  5
14B
100
AcDbEntity
  8
0
370
     0
390
0
  6
Continuous
 62
   174
100
AcDbVertex
100
AcDb2dVertex
 10
67.700597
 20
-302.645058
 30
0.0
 70
     8
  0
VERTEX
  5
14C
100
AcDbEntity
  8
0
370
     0
390
0
  6
Continuous
 62
   174
100
AcDbVertex
100
AcDb2dVertex
 10
67.711275
 20
-302.674866
 30
0.0
 70
     8
  0
VERTEX
  5
14D
100
AcDbEntity
  8
0
370
     0
390
0
  6
Continuous
 62
   174
100
AcDbVertex
100
AcDb2dVertex
 10
67.721756
 20
-302.704727
 30
0.0
 70
     8
  0
VERTEX
  5
14E
100
AcDbEntity
  8
0
370
     0
390
0
  6
Continuous
 62
   174
100
AcDbVertex
100
AcDb2dVertex
 10
67.732025
 20
-302.734644
 30
0.0
 70
     8
  0
VERTEX
  5
14F
100
AcDbEntity
  8
0
370
     0
390
0
  6
Continuous
 62
   174
100
AcDbVertex
100
AcDb2dVertex
 10
67.742064
 20
-302.764623
 30
0.0
 70
     8
  0
VERTEX
  5
150
100
AcDbEntity
  8
0
370
     0
390
0
  6
Continuous
 62
   174
100
AcDbVertex
100
AcDb2dVertex
 10
67.751856
 20
-302.794668
 30
0.0
 70
     8
  0
VERTEX
  5
151
100
AcDbEntity
  8
0
370
     0
390
0
  6
Continuous
 62
   174
100
AcDbVertex
100
AcDb2dVertex
 10
67.761386
 20
-302.824783
 30
0.0
 70
     8
  0
VERTEX
  5
152
100
AcDbEntity
  8
0
370
     0
390
0
  6
Continuous
 62
   174
100
AcDbVertex
100
AcDb2dVertex
 10
67.770636
 20
-302.854973
 30
0.0
 70
     8
  0
VERTEX
  5
153
100
AcDbEntity
  8
0
370
     0
390
0
  6
Continuous
 62
   174
100
AcDbVertex
100
AcDb2dVertex
 10
67.779589
 20
-302.885243
 30
0.0
 70
     8
  0
VERTEX
  5
154
100
AcDbEntity
  8
0
370
     0
390
0
  6
Continuous
 62
   174
100
AcDbVertex
100
AcDb2dVertex
 10
67.78823
 20
-302.915596
 30
0.0
 70
     8
  0
VERTEX
  5
155
100
AcDbEntity
  8
0
370
     0
390
0
  6
Continuous
 62
   174
100
AcDbVertex
100
AcDb2dVertex
 10
67.796541
 20
-302.946038
 30
0.0
 70
     8
  0
VERTEX
  5
156
100
AcDbEntity
  8
0
370
     0
390
0
  6
Continuous
 62
   174
100
AcDbVertex
100
AcDb2dVertex
 10
67.804506
 20
-302.976573
 30
0.0
 70
     8
  0
VERTEX
  5
157
100
AcDbEntity
  8
0
370
     0
390
0
  6
Continuous
 62
   174
100
AcDbVertex
100
AcDb2dVertex
 10
67.812108
 20
-303.007205
 30
0.0
 70
     8
  0
VERTEX
  5
158
100
AcDbEntity
  8
0
370
     0
390
0
  6
Continuous
 62
   174
100
AcDbVertex
100
AcDb2dVertex
 10
67.819331
 20
-303.03794
 30
0.0
 70
     8
  0
VERTEX
  5
159
100
AcDbEntity
  8
0
370
     0
390
0
  6
Continuous
 62
   174
100
AcDbVertex
100
AcDb2dVertex
 10
67.826158
 20
-303.06878
 30
0.0
 70
     8
  0
VERTEX
  5
15A
100
AcDbEntity
  8
0
370
     0
390
0
  6
Continuous
 62
   174
100
AcDbVertex
100
AcDb2dVertex
 10
67.832571
 20
-303.099732
 30
0.0
  0
VERTEX
  5
15B
100
AcDbEntity
  8
0
370
     0
390
0
  6
Continuous
 62
   174
100
AcDbVertex
100
AcDb2dVertex
 10
67.832571
 20
-303.099732
 30
0.0
  0
VERTEX
  5
15C
100
AcDbEntity
  8
0
370
     0
390
0
  6
Continuous
 62
   174
100
AcDbVertex
100
AcDb2dVertex
 10
67.836513
 20
-303.119402
 30
0.0
 70
     8
  0
VERTEX
  5
15D
100
AcDbEntity
  8
0
370
     0
390
0
  6
Continuous
 62
   174
100
AcDbVertex
100
AcDb2dVertex
 10
67.840485
 20
-303.139184
 30
0.0
 70
     8
  0
VERTEX
  5
15E
100
AcDbEntity
  8
0
370
     0
390
0
  6
Continuous
 62
   174
100
AcDbVertex
100
AcDb2dVertex
 10
67.844476
 20
-303.159071
 30
0.0
 70
     8
  0
VERTEX
  5
15F
100
AcDbEntity
  8
0
370
     0
390
0
  6
Continuous
 62
   174
100
AcDbVertex
100
AcDb2dVertex
 10
67.848474
 20
-303.179059
 30
0.0
 70
     8
  0
VERTEX
  5
160
100
AcDbEntity
  8
0
370
     0
390
0
  6
Continuous
 62
   174
100
AcDbVertex
100
AcDb2dVertex
 10
67.852466
 20
-303.19914
 30
0.0
 70
     8
  0
VERTEX
  5
161
100
AcDbEntity
  8
0
370
     0
390
0
  6
Continuous
 62
   174
100
AcDbVertex
100
AcDb2dVertex
 10
67.856441
 20
-303.219309
 30
0.0
 70
     8
  0
VERTEX
  5
162
100
AcDbEntity
  8
0
370
     0
390
0
  6
Continuous
 62
   174
100
AcDbVertex
100
AcDb2dVertex
 10
67.860387
 20
-303.239559
 30
0.0
 70
     8
  0
VERTEX
  5
163
100
AcDbEntity
  8
0
370
     0
390
0
  6
Continuous
 62
   174
100
AcDbVertex
100
AcDb2dVertex
 10
67.864292
 20
-303.259884
 30
0.0
 70
     8
  0
VERTEX
  5
164
100
AcDbEntity
  8
0
370
     0
390
0
  6
Continuous
 62
   174
100
AcDbVertex
100
AcDb2dVertex
 10
67.868143
 20
-303.280278
 30
0.0
 70
     8
  0
VERTEX
  5
165
100
AcDbEntity
  8
0
370
     0
390
0
  6
Continuous
 62
   174
100
AcDbVertex
100
AcDb2dVertex
 10
67.87193
 20
-303.300735
 30
0.0
 70
     8
  0
VERTEX
  5
166
100
AcDbEntity
  8
0
370
     0
390
0
  6
Continuous
 62
   174
100
AcDbVertex
100
AcDb2dVertex
 10
67.875639
 20
-303.321249
 30
0.0
 70
     8
  0
VERTEX
  5
167
100
AcDbEntity
  8
0
370
     0
390
0
  6
Continuous
 62
   174
100
AcDbVertex
100
AcDb2dVertex
 10
67.879259
 20
-303.341813
 30
0.0
 70
     8
  0
VERTEX
  5
168
100
AcDbEntity
  8
0
370
     0
390
0
  6
Continuous
 62
   174
100
AcDbVertex
100
AcDb2dVertex
 10
67.882778
 20
-303.362421
 30
0.0
 70
     8
  0
VERTEX
  5
169
100
AcDbEntity
  8
0
370
     0
390
0
  6
Continuous
 62
   174
100
AcDbVertex
100
AcDb2dVertex
 10
67.886185
 20
-303.383068
 30
0.0
 70
     8
  0
VERTEX
  5
16A
100
AcDbEntity
  8
0
370
     0
390
0
  6
Continuous
 62
   174
100
AcDbVertex
100
AcDb2dVertex
 10
67.889466
 20
-303.403746
 30
0.0
 70
     8
  0
VERTEX
  5
16B
100
AcDbEntity
  8
0
370
     0
390
0
  6
Continuous
 62
   174
100
AcDbVertex
100
AcDb2dVertex
 10
67.89261
 20
-303.42445
 30
0.0
 70
     8
  0
VERTEX
  5
16C
100
AcDbEntity
  8
0
370
     0
390
0
  6
Continuous
 62
   174
100
AcDbVertex
100
AcDb2dVertex
 10
67.895606
 20
-303.445174
 30
0.0
 70
     8
  0
VERTEX
  5
16D
100
AcDbEntity
  8
0
370
     0
390
0
  6
Continuous
 62
   174
100
AcDbVertex
100
AcDb2dVertex
 10
67.89844
 20
-303.465912
 30
0.0
 70
     8
  0
VERTEX
  5
16E
100
AcDbEntity
  8
0
370
     0
390
0
  6
Continuous
 62
   174
100
AcDbVertex
100
AcDb2dVertex
 10
67.901102
 20
-303.486656
 30
0.0
 70
     8
  0
VERTEX
  5
16F
100
AcDbEntity
  8
0
370
     0
390
0
  6
Continuous
 62
   174
100
AcDbVertex
100
AcDb2dVertex
 10
67.903579
 20
-303.507402
 30
0.0
 70
     8
  0
VERTEX
  5
170
100
AcDbEntity
  8
0
370
     0
390
0
  6
Continuous
 62
   174
100
AcDbVertex
100
AcDb2dVertex
 10
67.905859
 20
-303.528143
 30
0.0
 70
     8
  0
VERTEX
  5
171
100
AcDbEntity
  8
0
370
     0
390
0
  6
Continuous
 62
   174
100
AcDbVertex
100
AcDb2dVertex
 10
67.90793
 20
-303.548873
 30
0.0
 70
     8
  0
VERTEX
  5
172
100
AcDbEntity
  8
0
370
     0
390
0
  6
Continuous
 62
   174
100
AcDbVertex
100
AcDb2dVertex
 10
67.90978
 20
-303.569585
 30
0.0
 70
     8
  0
VERTEX
  5
173
100
AcDbEntity
  8
0
370
     0
390
0
  6
Continuous
 62
   174
100
AcDbVertex
100
AcDb2dVertex
 10
67.911398
 20
-303.590274
 30
0.0
 70
     8
  0
VERTEX
  5
174
100
AcDbEntity
  8
0
370
     0
390
0
  6
Continuous
 62
   174
100
AcDbVertex
100
AcDb2dVertex
 10
67.912772
 20
-303.610933
 30
0.0
 70
     8
  0
VERTEX
  5
175
100
AcDbEntity
  8
0
370
     0
390
0
  6
Continuous
 62
   174
100
AcDbVertex
100
AcDb2dVertex
 10
67.913888
 20
-303.631556
 30
0.0
 70
     8
  0
VERTEX
  5
176
100
AcDbEntity
  8
0
370
     0
390
0
  6
Continuous
 62
   174
100
AcDbVertex
100
AcDb2dVertex
 10
67.914736
 20
-303.652138
 30
0.0
 70
     8
  0
VERTEX
  5
177
100
AcDbEntity
  8
0
370
     0
390
0
  6
Continuous
 62
   174
100
AcDbVertex
100
AcDb2dVertex
 10
67.915303
 20
-303.672671
 30
0.0
 70
     8
  0
VERTEX
  5
178
100
AcDbEntity
  8
0
370
     0
390
0
  6
Continuous
 62
   174
100
AcDbVertex
100
AcDb2dVertex
 10
67.915578
 20
-303.69315
 30
0.0
 70
     8
  0
VERTEX
  5
179
100
AcDbEntity
  8
0
370
     0
390
0
  6
Continuous
 62
   174
100
AcDbVertex
100
AcDb2dVertex
 10
67.915548
 20
-303.713568
 30
0.0
 70
     8
  0
VERTEX
  5
17A
100
AcDbEntity
  8
0
370
     0
390
0
  6
Continuous
 62
   174
100
AcDbVertex
100
AcDb2dVertex
 10
67.915202
 20
-303.733919
 30
0.0
 70
     8
  0
VERTEX
  5
17B
100
AcDbEntity
  8
0
370
     0
390
0
  6
Continuous
 62
   174
100
AcDbVertex
100
AcDb2dVertex
 10
67.914527
 20
-303.754198
 30
0.0
 70
     8
  0
VERTEX
  5
17C
100
AcDbEntity
  8
0
370
     0
390
0
  6
Continuous
 62
   174
100
AcDbVertex
100
AcDb2dVertex
 10
67.913512
 20
-303.774398
 30
0.0
 70
     8
  0
VERTEX
  5
17D
100
AcDbEntity
  8
0
370
     0
390
0
  6
Continuous
 62
   174
100
AcDbVertex
100
AcDb2dVertex
 10
67.912145
 20
-303.794513
 30
0.0
 70
     8
  0
VERTEX
  5
17E
100
AcDbEntity
  8
0
370
     0
390
0
  6
Continuous
 62
   174
100
AcDbVertex
100
AcDb2dVertex
 10
67.910413
 20
-303.814536
 30
0.0
 70
     8
  0
VERTEX
  5
17F
100
AcDbEntity
  8
0
370
     0
390
0
  6
Continuous
 62
   174
100
AcDbVertex
100
AcDb2dVertex
 10
67.908305
 20
-303.834462
 30
0.0
 70
     8
  0
VERTEX
  5
180
100
AcDbEntity
  8
0
370
     0
390
0
  6
Continuous
 62
   174
100
AcDbVertex
100
AcDb2dVertex
 10
67.905808
 20
-303.854284
 30
0.0
 70
     8
  0
VERTEX
  5
181
100
AcDbEntity
  8
0
370
     0
390
0
  6
Continuous
 62
   174
100
AcDbVertex
100
AcDb2dVertex
 10
67.902911
 20
-303.873996
 30
0.0
 70
     8
  0
VERTEX
  5
182
100
AcDbEntity
  8
0
370
     0
390
0
  6
Continuous
 62
   174
100
AcDbVertex
100
AcDb2dVertex
 10
67.899602
 20
-303.893592
 30
0.0
 70
     8
  0
VERTEX
  5
183
100
AcDbEntity
  8
0
370
     0
390
0
  6
Continuous
 62
   174
100
AcDbVertex
100
AcDb2dVertex
 10
67.895869
 20
-303.913066
 30
0.0
 70
     8
  0
VERTEX
  5
184
100
AcDbEntity
  8
0
370
     0
390
0
  6
Continuous
 62
   174
100
AcDbVertex
100
AcDb2dVertex
 10
67.8917
 20
-303.932412
 30
0.0
 70
     8
  0
VERTEX
  5
185
100
AcDbEntity
  8
0
370
     0
390
0
  6
Continuous
 62
   174
100
AcDbVertex
100
AcDb2dVertex
 10
67.887082
 20
-303.951623
 30
0.0
 70
     8
  0
VERTEX
  5
186
100
AcDbEntity
  8
0
370
     0
390
0
  6
Continuous
 62
   174
100
AcDbVertex
100
AcDb2dVertex
 10
67.882004
 20
-303.970694
 30
0.0
 70
     8
  0
VERTEX
  5
187
100
AcDbEntity
  8
0
370
     0
390
0
  6
Continuous
 62
   174
100
AcDbVertex
100
AcDb2dVertex
 10
67.876455
 20
-303.989618
 30
0.0
 70
     8
  0
VERTEX
  5
188
100
AcDbEntity
  8
0
370
     0
390
0
  6
Continuous
 62
   174
100
AcDbVertex
100
AcDb2dVertex
 10
67.870421
 20
-304.008388
 30
0.0
 70
     8
  0
VERTEX
  5
189
100
AcDbEntity
  8
0
370
     0
390
0
  6
Continuous
 62
   174
100
AcDbVertex
100
AcDb2dVertex
 10
67.863891
 20
-304.027
 30
0.0
 70
     8
  0
VERTEX
  5
18A
100
AcDbEntity
  8
0
370
     0
390
0
  6
Continuous
 62
   174
100
AcDbVertex
100
AcDb2dVertex
 10
67.856853
 20
-304.045446
 30
0.0
 70
     8
  0
VERTEX
  5
18B
100
AcDbEntity
  8
0
370
     0
390
0
  6
Continuous
 62
   174
100
AcDbVertex
100
AcDb2dVertex
 10
67.849295
 20
-304.063721
 30
0.0
 70
     8
  0
VERTEX
  5
18C
100
AcDbEntity
  8
0
370
     0
390
0
  6
Continuous
 62
   174
100
AcDbVertex
100
AcDb2dVertex
 10
67.841205
 20
-304.081819
 30
0.0
 70
     8
  0
VERTEX
  5
18D
100
AcDbEntity
  8
0
370
     0
390
0
  6
Continuous
 62
   174
100
AcDbVertex
100
AcDb2dVertex
 10
67.832571
 20
-304.099732
 30
0.0
  0
VERTEX
  5
18E
100
AcDbEntity
  8
0
370
     0
390
0
  6
Continuous
 62
   174
100
AcDbVertex
100
AcDb2dVertex
 10
67.832571
 20
-304.099732
 30
0.0
  0
VERTEX
  5
18F
100
AcDbEntity
  8
0
370
     0
390
0
  6
Continuous
 62
   174
100
AcDbVertex
100
AcDb2dVertex
 10
67.824293
 20
-304.115607
 30
0.0
 70
     8
  0
VERTEX
  5
190
100
AcDbEntity
  8
0
370
     0
390
0
  6
Continuous
 62
   174
100
AcDbVertex
100
AcDb2dVertex
 10
67.81553
 20
-304.131111
 30
0.0
 70
     8
  0
VERTEX
  5
191
100
AcDbEntity
  8
0
370
     0
390
0
  6
Continuous
 62
   174
100
AcDbVertex
100
AcDb2dVertex
 10
67.806294
 20
-304.146255
 30
0.0
 70
     8
  0
VERTEX
  5
192
100
AcDbEntity
  8
0
370
     0
390
0
  6
Continuous
 62
   174
100
AcDbVertex
100
AcDb2dVertex
 10
67.796599
 20
-304.161045
 30
0.0
 70
     8
  0
VERTEX
  5
193
100
AcDbEntity
  8
0
370
     0
390
0
  6
Continuous
 62
   174
100
AcDbVertex
100
AcDb2dVertex
 10
67.786459
 20
-304.175489
 30
0.0
 70
     8
  0
VERTEX
  5
194
100
AcDbEntity
  8
0
370
     0
390
0
  6
Continuous
 62
   174
100
AcDbVertex
100
AcDb2dVertex
 10
67.775885
 20
-304.189596
 30
0.0
 70
     8
  0
VERTEX
  5
195
100
AcDbEntity
  8
0
370
     0
390
0
  6
Continuous
 62
   174
100
AcDbVertex
100
AcDb2dVertex
 10
67.764893
 20
-304.203374
 30
0.0
 70
     8
  0
VERTEX
  5
196
100
AcDbEntity
  8
0
370
     0
390
0
  6
Continuous
 62
   174
100
AcDbVertex
100
AcDb2dVertex
 10
67.753494
 20
-304.216832
 30
0.0
 70
     8
  0
VERTEX
  5
197
100
AcDbEntity
  8
0
370
     0
390
0
  6
Continuous
 62
   174
100
AcDbVertex
100
AcDb2dVertex
 10
67.741702
 20
-304.229976
 30
0.0
 70
     8
  0
VERTEX
  5
198
100
AcDbEntity
  8
0
370
     0
390
0
  6
Continuous
 62
   174
100
AcDbVertex
100
AcDb2dVertex
 10
67.729531
 20
-304.242815
 30
0.0
 70
     8
  0
VERTEX
  5
199
100
AcDbEntity
  8
0
370
     0
390
0
  6
Continuous
 62
   174
100
AcDbVertex
100
AcDb2dVertex
 10
67.716992
 20
-304.255358
 30
0.0
 70
     8
  0
VERTEX
  5
19A
100
AcDbEntity
  8
0
370
     0
390
0
  6
Continuous
 62
   174
100
AcDbVertex
100
AcDb2dVertex
 10
67.7041
 20
-304.267612
 30
0.0
 70
     8
  0
VERTEX
  5
19B
100
AcDbEntity
  8
0
370
     0
390
0
  6
Continuous
 62
   174
100
AcDbVertex
100
AcDb2dVertex
 10
67.690868
 20
-304.279586
 30
0.0
 70
     8
  0
VERTEX
  5
19C
100
AcDbEntity
  8
0
370
     0
390
0
  6
Continuous
 62
   174
100
AcDbVertex
100
AcDb2dVertex
 10
67.677309
 20
-304.291288
 30
0.0
 70
     8
  0
VERTEX
  5
19D
100
AcDbEntity
  8
0
370
     0
390
0
  6
Continuous
 62
   174
100
AcDbVertex
100
AcDb2dVertex
 10
67.663436
 20
-304.302726
 30
0.0
 70
     8
  0
VERTEX
  5
19E
100
AcDbEntity
  8
0
370
     0
390
0
  6
Continuous
 62
   174
100
AcDbVertex
100
AcDb2dVertex
 10
67.649262
 20
-304.313907
 30
0.0
 70
     8
  0
VERTEX
  5
19F
100
AcDbEntity
  8
0
370
     0
390
0
  6
Continuous
 62
   174
100
AcDbVertex
100
AcDb2dVertex
 10
67.6348
 20
-304.324841
 30
0.0
 70
     8
  0
VERTEX
  5
1A0
100
AcDbEntity
  8
0
370
     0
390
0
  6
Continuous
 62
   174
100
AcDbVertex
100
AcDb2dVertex
 10
67.620064
 20
-304.335535
 30
0.0
 70
     8
  0
VERTEX
  5
1A1
100
AcDbEntity
  8
0
370
     0
390
0
  6
Continuous
 62
   174
100
AcDbVertex
100
AcDb2dVertex
 10
67.605067
 20
-304.345997
 30
0.0
 70
     8
  0
VERTEX
  5
1A2
100
AcDbEntity
  8
0
370
     0
390
0
  6
Continuous
 62
   174
100
AcDbVertex
100
AcDb2dVertex
 10
67.589822
 20
-304.356235
 30
0.0
 70
     8
  0
VERTEX
  5
1A3
100
AcDbEntity
  8
0
370
     0
390
0
  6
Continuous
 62
   174
100
AcDbVertex
100
AcDb2dVertex
 10
67.574343
 20
-304.366259
 30
0.0
 70
     8
  0
VERTEX
  5
1A4
100
AcDbEntity
  8
0
370
     0
390
0
  6
Continuous
 62
   174
100
AcDbVertex
100
AcDb2dVertex
 10
67.558641
 20
-304.376074
 30
0.0
 70
     8
  0
VERTEX
  5
1A5
100
AcDbEntity
  8
0
370
     0
390
0
  6
Continuous
 62
   174
100
AcDbVertex
100
AcDb2dVertex
 10
67.542731
 20
-304.385691
 30
0.0
 70
     8
  0
VERTEX
  5
1A6
100
AcDbEntity
  8
0
370
     0
390
0
  6
Continuous
 62
   174
100
AcDbVertex
100
AcDb2dVertex
 10
67.526626
 20
-304.395117
 30
0.0
 70
     8
  0
VERTEX
  5
1A7
100
AcDbEntity
  8
0
370
     0
390
0
  6
Continuous
 62
   174
100
AcDbVertex
100
AcDb2dVertex
 10
67.510339
 20
-304.40436
 30
0.0
 70
     8
  0
VERTEX
  5
1A8
100
AcDbEntity
  8
0
370
     0
390
0
  6
Continuous
 62
   174
100
AcDbVertex
100
AcDb2dVertex
 10
67.493883
 20
-304.413428
 30
0.0
 70
     8
  0
VERTEX
  5
1A9
100
AcDbEntity
  8
0
370
     0
390
0
  6
Continuous
 62
   174
100
AcDbVertex
100
AcDb2dVertex
 10
67.477272
 20
-304.422329
 30
0.0
 70
     8
  0
VERTEX
  5
1AA
100
AcDbEntity
  8
0
370
     0
390
0
  6
Continuous
 62
   174
100
AcDbVertex
100
AcDb2dVertex
 10
67.460518
 20
-304.431072
 30
0.0
 70
     8
  0
VERTEX
  5
1AB
100
AcDbEntity
  8
0
370
     0
390
0
  6
Continuous
 62
   174
100
AcDbVertex
100
AcDb2dVertex
 10
67.443634
 20
-304.439664
 30
0.0
 70
     8
  0
VERTEX
  5
1AC
100
AcDbEntity
  8
0
370
     0
390
0
  6
Continuous
 62
   174
100
AcDbVertex
100
AcDb2dVertex
 10
67.426635
 20
-304.448114
 30
0.0
 70
     8
  0
VERTEX
  5
1AD
100
AcDbEntity
  8
0
370
     0
390
0
  6
Continuous
 62
   174
100
AcDbVertex
100
AcDb2dVertex
 10
67.409532
 20
-304.45643
 30
0.0
 70
     8
  0
VERTEX
  5
1AE
100
AcDbEntity
  8
0
370
     0
390
0
  6
Continuous
 62
   174
100
AcDbVertex
100
AcDb2dVertex
 10
67.39234
 20
-304.464619
 30
0.0
 70
     8
  0
VERTEX
  5
1AF
100
AcDbEntity
  8
0
370
     0
390
0
  6
Continuous
 62
   174
100
AcDbVertex
100
AcDb2dVertex
 10
67.375071
 20
-304.472691
 30
0.0
 70
     8
  0
VERTEX
  5
1B0
100
AcDbEntity
  8
0
370
     0
390
0
  6
Continuous
 62
   174
100
AcDbVertex
100
AcDb2dVertex
 10
67.357739
 20
-304.480653
 30
0.0
 70
     8
  0
VERTEX
  5
1B1
100
AcDbEntity
  8
0
370
     0
390
0
  6
Continuous
 62
   174
100
AcDbVertex
100
AcDb2dVertex
 10
67.340357
 20
-304.488513
 30
0.0
 70
     8
  0
VERTEX
  5
1B2
100
AcDbEntity
  8
0
370
     0
390
0
  6
Continuous
 62
   174
100
AcDbVertex
100
AcDb2dVertex
 10
67.322938
 20
-304.496279
 30
0.0
 70
     8
  0
VERTEX
  5
1B3
100
AcDbEntity
  8
0
370
     0
390
0
  6
Continuous
 62
   174
100
AcDbVertex
100
AcDb2dVertex
 10
67.305495
 20
-304.503961
 30
0.0
 70
     8
  0
VERTEX
  5
1B4
100
AcDbEntity
  8
0
370
     0
390
0
  6
Continuous
 62
   174
100
AcDbVertex
100
AcDb2dVertex
 10
67.288041
 20
-304.511564
 30
0.0
 70
     8
  0
VERTEX
  5
1B5
100
AcDbEntity
  8
0
370
     0
390
0
  6
Continuous
 62
   174
100
AcDbVertex
100
AcDb2dVertex
 10
67.27059
 20
-304.519099
 30
0.0
 70
     8
  0
VERTEX
  5
1B6
100
AcDbEntity
  8
0
370
     0
390
0
  6
Continuous
 62
   174
100
AcDbVertex
100
AcDb2dVertex
 10
67.253155
 20
-304.526572
 30
0.0
 70
     8
  0
VERTEX
  5
1B7
100
AcDbEntity
  8
0
370
     0
390
0
  6
Continuous
 62
   174
100
AcDbVertex
100
AcDb2dVertex
 10
67.235749
 20
-304.533993
 30
0.0
 70
     8
  0
VERTEX
  5
1B8
100
AcDbEntity
  8
0
370
     0
390
0
  6
Continuous
 62
   174
100
AcDbVertex
100
AcDb2dVertex
 10
67.218385
 20
-304.541368
 30
0.0
 70
     8
  0
VERTEX
  5
1B9
100
AcDbEntity
  8
0
370
     0
390
0
  6
Continuous
 62
   174
100
AcDbVertex
100
AcDb2dVertex
 10
67.201076
 20
-304.548707
 30
0.0
 70
     8
  0
VERTEX
  5
1BA
100
AcDbEntity
  8
0
370
     0
390
0
  6
Continuous
 62
   174
100
AcDbVertex
100
AcDb2dVertex
 10
67.183835
 20
-304.556017
 30
0.0
 70
     8
  0
VERTEX
  5
1BB
100
AcDbEntity
  8
0
370
     0
390
0
  6
Continuous
 62
   174
100
AcDbVertex
100
AcDb2dVertex
 10
67.166677
 20
-304.563307
 30
0.0
 70
     8
  0
VERTEX
  5
1BC
100
AcDbEntity
  8
0
370
     0
390
0
  6
Continuous
 62
   174
100
AcDbVertex
100
AcDb2dVertex
 10
67.149613
 20
-304.570584
 30
0.0
 70
     8
  0
VERTEX
  5
1BD
100
AcDbEntity
  8
0
370
     0
390
0
  6
Continuous
 62
   174
100
AcDbVertex
100
AcDb2dVertex
 10
67.132658
 20
-304.577857
 30
0.0
 70
     8
  0
VERTEX
  5
1BE
100
AcDbEntity
  8
0
370
     0
390
0
  6
Continuous
 62
   174
100
AcDbVertex
100
AcDb2dVertex
 10
67.115823
 20
-304.585134
 30
0.0
 70
     8
  0
VERTEX
  5
1BF
100
AcDbEntity
  8
0
370
     0
390
0
  6
Continuous
 62
   174
100
AcDbVertex
100
AcDb2dVertex
 10
67.099123
 20
-304.592423
 30
0.0
 70
     8
  0
VERTEX
  5
1C0
100
AcDbEntity
  8
0
370
     0
390
0
  6
Continuous
 62
   174
100
AcDbVertex
100
AcDb2dVertex
 10
67.082571
 20
-304.599732
 30
0.0
  0
VERTEX
  5
1C1
100
AcDbEntity
  8
0
370
     0
390
0
  6
Continuous
 62
   174
100
AcDbVertex
100
AcDb2dVertex
 10
67.082571
 20
-304.599732
 30
0.0
  0
VERTEX
  5
1C2
100
AcDbEntity
  8
0
370
     0
390
0
  6
Continuous
 62
   174
100
AcDbVertex
100
AcDb2dVertex
 10
67.053644
 20
-304.612508
 30
0.0
 70
     8
  0
VERTEX
  5
1C3
100
AcDbEntity
  8
0
370
     0
390
0
  6
Continuous
 62
   174
100
AcDbVertex
100
AcDb2dVertex
 10
67.024656
 20
-304.625152
 30
0.0
 70
     8
  0
VERTEX
  5
1C4
100
AcDbEntity
  8
0
370
     0
390
0
  6
Continuous
 62
   174
100
AcDbVertex
100
AcDb2dVertex
 10
66.995609
 20
-304.637663
 30
0.0
 70
     8
  0
VERTEX
  5
1C5
100
AcDbEntity
  8
0
370
     0
390
0
  6
Continuous
 62
   174
100
AcDbVertex
100
AcDb2dVertex
 10
66.966505
 20
-304.650044
 30
0.0
 70
     8
  0
VERTEX
  5
1C6
100
AcDbEntity
  8
0
370
     0
390
0
  6
Continuous
 62
   174
100
AcDbVertex
100
AcDb2dVertex
 10
66.937343
 20
-304.662296
 30
0.0
 70
     8
  0
VERTEX
  5
1C7
100
AcDbEntity
  8
0
370
     0
390
0
  6
Continuous
 62
   174
100
AcDbVertex
100
AcDb2dVertex
 10
66.908125
 20
-304.674419
 30
0.0
 70
     8
  0
VERTEX
  5
1C8
100
AcDbEntity
  8
0
370
     0
390
0
  6
Continuous
 62
   174
100
AcDbVertex
100
AcDb2dVertex
 10
66.878852
 20
-304.686416
 30
0.0
 70
     8
  0
VERTEX
  5
1C9
100
AcDbEntity
  8
0
370
     0
390
0
  6
Continuous
 62
   174
100
AcDbVertex
100
AcDb2dVertex
 10
66.849526
 20
-304.698287
 30
0.0
 70
     8
  0
VERTEX
  5
1CA
100
AcDbEntity
  8
0
370
     0
390
0
  6
Continuous
 62
   174
100
AcDbVertex
100
AcDb2dVertex
 10
66.820146
 20
-304.710034
 30
0.0
 70
     8
  0
VERTEX
  5
1CB
100
AcDbEntity
  8
0
370
     0
390
0
  6
Continuous
 62
   174
100
AcDbVertex
100
AcDb2dVertex
 10
66.790715
 20
-304.721657
 30
0.0
 70
     8
  0
VERTEX
  5
1CC
100
AcDbEntity
  8
0
370
     0
390
0
  6
Continuous
 62
   174
100
AcDbVertex
100
AcDb2dVertex
 10
66.761232
 20
-304.733159
 30
0.0
 70
     8
  0
VERTEX
  5
1CD
100
AcDbEntity
  8
0
370
     0
390
0
  6
Continuous
 62
   174
100
AcDbVertex
100
AcDb2dVertex
 10
66.7317
 20
-304.74454
 30
0.0
 70
     8
  0
VERTEX
  5
1CE
100
AcDbEntity
  8
0
370
     0
390
0
  6
Continuous
 62
   174
100
AcDbVertex
100
AcDb2dVertex
 10
66.702119
 20
-304.755801
 30
0.0
 70
     8
  0
VERTEX
  5
1CF
100
AcDbEntity
  8
0
370
     0
390
0
  6
Continuous
 62
   174
100
AcDbVertex
100
AcDb2dVertex
 10
66.67249
 20
-304.766944
 30
0.0
 70
     8
  0
VERTEX
  5
1D0
100
AcDbEntity
  8
0
370
     0
390
0
  6
Continuous
 62
   174
100
AcDbVertex
100
AcDb2dVertex
 10
66.642814
 20
-304.77797
 30
0.0
 70
     8
  0
VERTEX
  5
1D1
100
AcDbEntity
  8
0
370
     0
390
0
  6
Continuous
 62
   174
100
AcDbVertex
100
AcDb2dVertex
 10
66.613092
 20
-304.788881
 30
0.0
 70
     8
  0
VERTEX
  5
1D2
100
AcDbEntity
  8
0
370
     0
390
0
  6
Continuous
 62
   174
100
AcDbVertex
100
AcDb2dVertex
 10
66.583326
 20
-304.799676
 30
0.0
 70
     8
  0
VERTEX
  5
1D3
100
AcDbEntity
  8
0
370
     0
390
0
  6
Continuous
 62
   174
100
AcDbVertex
100
AcDb2dVertex
 10
66.553516
 20
-304.810359
 30
0.0
 70
     8
  0
VERTEX
  5
1D4
100
AcDbEntity
  8
0
370
     0
390
0
  6
Continuous
 62
   174
100
AcDbVertex
100
AcDb2dVertex
 10
66.523663
 20
-304.820929
 30
0.0
 70
     8
  0
VERTEX
  5
1D5
100
AcDbEntity
  8
0
370
     0
390
0
  6
Continuous
 62
   174
100
AcDbVertex
100
AcDb2dVertex
 10
66.493768
 20
-304.831389
 30
0.0
 70
     8
  0
VERTEX
  5
1D6
100
AcDbEntity
  8
0
370
     0
390
0
  6
Continuous
 62
   174
100
AcDbVertex
100
AcDb2dVertex
 10
66.463833
 20
-304.841739
 30
0.0
 70
     8
  0
VERTEX
  5
1D7
100
AcDbEntity
  8
0
370
     0
390
0
  6
Continuous
 62
   174
100
AcDbVertex
100
AcDb2dVertex
 10
66.433858
 20
-304.85198
 30
0.0
 70
     8
  0
VERTEX
  5
1D8
100
AcDbEntity
  8
0
370
     0
390
0
  6
Continuous
 62
   174
100
AcDbVertex
100
AcDb2dVertex
 10
66.403844
 20
-304.862115
 30
0.0
 70
     8
  0
VERTEX
  5
1D9
100
AcDbEntity
  8
0
370
     0
390
0
  6
Continuous
 62
   174
100
AcDbVertex
100
AcDb2dVertex
 10
66.373793
 20
-304.872143
 30
0.0
 70
     8
  0
VERTEX
  5
1DA
100
AcDbEntity
  8
0
370
     0
390
0
  6
Continuous
 62
   174
100
AcDbVertex
100
AcDb2dVertex
 10
66.343705
 20
-304.882067
 30
0.0
 70
     8
  0
VERTEX
  5
1DB
100
AcDbEntity
  8
0
370
     0
390
0
  6
Continuous
 62
   174
100
AcDbVertex
100
AcDb2dVertex
 10
66.313581
 20
-304.891887
 30
0.0
 70
     8
  0
VERTEX
  5
1DC
100
AcDbEntity
  8
0
370
     0
390
0
  6
Continuous
 62
   174
100
AcDbVertex
100
AcDb2dVertex
 10
66.283423
 20
-304.901605
 30
0.0
 70
     8
  0
VERTEX
  5
1DD
100
AcDbEntity
  8
0
370
     0
390
0
  6
Continuous
 62
   174
100
AcDbVertex
100
AcDb2dVertex
 10
66.253231
 20
-304.911222
 30
0.0
 70
     8
  0
VERTEX
  5
1DE
100
AcDbEntity
  8
0
370
     0
390
0
  6
Continuous
 62
   174
100
AcDbVertex
100
AcDb2dVertex
 10
66.223006
 20
-304.920739
 30
0.0
 70
     8
  0
VERTEX
  5
1DF
100
AcDbEntity
  8
0
370
     0
390
0
  6
Continuous
 62
   174
100
AcDbVertex
100
AcDb2dVertex
 10
66.19275
 20
-304.930158
 30
0.0
 70
     8
  0
VERTEX
  5
1E0
100
AcDbEntity
  8
0
370
     0
390
0
  6
Continuous
 62
   174
100
AcDbVertex
100
AcDb2dVertex
 10
66.162464
 20
-304.939479
 30
0.0
 70
     8
  0
VERTEX
  5
1E1
100
AcDbEntity
  8
0
370
     0
390
0
  6
Continuous
 62
   174
100
AcDbVertex
100
AcDb2dVertex
 10
66.132148
 20
-304.948705
 30
0.0
 70
     8
  0
VERTEX
  5
1E2
100
AcDbEntity
  8
0
370
     0
390
0
  6
Continuous
 62
   174
100
AcDbVertex
100
AcDb2dVertex
 10
66.101803
 20
-304.957835
 30
0.0
 70
     8
  0
VERTEX
  5
1E3
100
AcDbEntity
  8
0
370
     0
390
0
  6
Continuous
 62
   174
100
AcDbVertex
100
AcDb2dVertex
 10
66.071431
 20
-304.966872
 30
0.0
 70
     8
  0
VERTEX
  5
1E4
100
AcDbEntity
  8
0
370
     0
390
0
  6
Continuous
 62
   174
100
AcDbVertex
100
AcDb2dVertex
 10
66.041033
 20
-304.975816
 30
0.0
 70
     8
  0
VERTEX
  5
1E5
100
AcDbEntity
  8
0
370
     0
390
0
  6
Continuous
 62
   174
100
AcDbVertex
100
AcDb2dVertex
 10
66.010609
 20
-304.984669
 30
0.0
 70
     8
  0
VERTEX
  5
1E6
100
AcDbEntity
  8
0
370
     0
390
0
  6
Continuous
 62
   174
100
AcDbVertex
100
AcDb2dVertex
 10
65.98016
 20
-304.993433
 30
0.0
 70
     8
  0
VERTEX
  5
1E7
100
AcDbEntity
  8
0
370
     0
390
0
  6
Continuous
 62
   174
100
AcDbVertex
100
AcDb2dVertex
 10
65.949688
 20
-305.002107
 30
0.0
 70
     8
  0
VERTEX
  5
1E8
100
AcDbEntity
  8
0
370
     0
390
0
  6
Continuous
 62
   174
100
AcDbVertex
100
AcDb2dVertex
 10
65.919194
 20
-305.010694
 30
0.0
 70
     8
  0
VERTEX
  5
1E9
100
AcDbEntity
  8
0
370
     0
390
0
  6
Continuous
 62
   174
100
AcDbVertex
100
AcDb2dVertex
 10
65.888679
 20
-305.019195
 30
0.0
 70
     8
  0
VERTEX
  5
1EA
100
AcDbEntity
  8
0
370
     0
390
0
  6
Continuous
 62
   174
100
AcDbVertex
100
AcDb2dVertex
 10
65.858143
 20
-305.027611
 30
0.0
 70
     8
  0
VERTEX
  5
1EB
100
AcDbEntity
  8
0
370
     0
390
0
  6
Continuous
 62
   174
100
AcDbVertex
100
AcDb2dVertex
 10
65.827588
 20
-305.035943
 30
0.0
 70
     8
  0
VERTEX
  5
1EC
100
AcDbEntity
  8
0
370
     0
390
0
  6
Continuous
 62
   174
100
AcDbVertex
100
AcDb2dVertex
 10
65.797014
 20
-305.044193
 30
0.0
 70
     8
  0
VERTEX
  5
1ED
100
AcDbEntity
  8
0
370
     0
390
0
  6
Continuous
 62
   174
100
AcDbVertex
100
AcDb2dVertex
 10
65.766423
 20
-305.052361
 30
0.0
 70
     8
  0
VERTEX
  5
1EE
100
AcDbEntity
  8
0
370
     0
390
0
  6
Continuous
 62
   174
100
AcDbVertex
100
AcDb2dVertex
 10
65.735816
 20
-305.060449
 30
0.0
 70
     8
  0
VERTEX
  5
1EF
100
AcDbEntity
  8
0
370
     0
390
0
  6
Continuous
 62
   174
100
AcDbVertex
100
AcDb2dVertex
 10
65.705193
 20
-305.068459
 30
0.0
 70
     8
  0
VERTEX
  5
1F0
100
AcDbEntity
  8
0
370
     0
390
0
  6
Continuous
 62
   174
100
AcDbVertex
100
AcDb2dVertex
 10
65.674557
 20
-305.07639
 30
0.0
 70
     8
  0
VERTEX
  5
1F1
100
AcDbEntity
  8
0
370
     0
390
0
  6
Continuous
 62
   174
100
AcDbVertex
100
AcDb2dVertex
 10
65.643907
 20
-305.084246
 30
0.0
 70
     8
  0
VERTEX
  5
1F2
100
AcDbEntity
  8
0
370
     0
390
0
  6
Continuous
 62
   174
100
AcDbVertex
100
AcDb2dVertex
 10
65.613245
 20
-305.092026
 30
0.0
 70
     8
  0
VERTEX
  5
1F3
100
AcDbEntity
  8
0
370
     0
390
0
  6
Continuous
 62
   174
100
AcDbVertex
100
AcDb2dVertex
 10
65.582571
 20
-305.099732
 30
0.0
  0
VERTEX
  5
1F4
100
AcDbEntity
  8
0
370
     0
390
0
  6
Continuous
 62
   174
100
AcDbVertex
100
AcDb2dVertex
 10
65.582571
 20
-305.099732
 30
0.0
  0
VERTEX
  5
1F5
100
AcDbEntity
  8
0
370
     0
390
0
  6
Continuous
 62
   174
100
AcDbVertex
100
AcDb2dVertex
 10
65.533082
 20
-305.112005
 30
0.0
 70
     8
  0
VERTEX
  5
1F6
100
AcDbEntity
  8
0
370
     0
390
0
  6
Continuous
 62
   174
100
AcDbVertex
100
AcDb2dVertex
 10
65.483552
 20
-305.124095
 30
0.0
 70
     8
  0
VERTEX
  5
1F7
100
AcDbEntity
  8
0
370
     0
390
0
  6
Continuous
 62
   174
100
AcDbVertex
100
AcDb2dVertex
 10
65.433982
 20
-305.136006
 30
0.0
 70
     8
  0
VERTEX
  5
1F8
100
AcDbEntity
  8
0
370
     0
390
0
  6
Continuous
 62
   174
100
AcDbVertex
100
AcDb2dVertex
 10
65.384373
 20
-305.147745
 30
0.0
 70
     8
  0
VERTEX
  5
1F9
100
AcDbEntity
  8
0
370
     0
390
0
  6
Continuous
 62
   174
100
AcDbVertex
100
AcDb2dVertex
 10
65.334727
 20
-305.159318
 30
0.0
 70
     8
  0
VERTEX
  5
1FA
100
AcDbEntity
  8
0
370
     0
390
0
  6
Continuous
 62
   174
100
AcDbVertex
100
AcDb2dVertex
 10
65.285044
 20
-305.17073
 30
0.0
 70
     8
  0
VERTEX
  5
1FB
100
AcDbEntity
  8
0
370
     0
390
0
  6
Continuous
 62
   174
100
AcDbVertex
100
AcDb2dVertex
 10
65.235327
 20
-305.181986
 30
0.0
 70
     8
  0
VERTEX
  5
1FC
100
AcDbEntity
  8
0
370
     0
390
0
  6
Continuous
 62
   174
100
AcDbVertex
100
AcDb2dVertex
 10
65.185576
 20
-305.193093
 30
0.0
 70
     8
  0
VERTEX
  5
1FD
100
AcDbEntity
  8
0
370
     0
390
0
  6
Continuous
 62
   174
100
AcDbVertex
100
AcDb2dVertex
 10
65.135792
 20
-305.204056
 30
0.0
 70
     8
  0
VERTEX
  5
1FE
100
AcDbEntity
  8
0
370
     0
390
0
  6
Continuous
 62
   174
100
AcDbVertex
100
AcDb2dVertex
 10
65.085978
 20
-305.21488
 30
0.0
 70
     8
  0
VERTEX
  5
1FF
100
AcDbEntity
  8
0
370
     0
390
0
  6
Continuous
 62
   174
100
AcDbVertex
100
AcDb2dVertex
 10
65.036133
 20
-305.225572
 30
0.0
 70
     8
  0
VERTEX
  5
200
100
AcDbEntity
  8
0
370
     0
390
0
  6
Continuous
 62
   174
100
AcDbVertex
100
AcDb2dVertex
 10
64.98626
 20
-305.236138
 30
0.0
 70
     8
  0
VERTEX
  5
201
100
AcDbEntity
  8
0
370
     0
390
0
  6
Continuous
 62
   174
100
AcDbVertex
100
AcDb2dVertex
 10
64.93636
 20
-305.246582
 30
0.0
 70
     8
  0
VERTEX
  5
202
100
AcDbEntity
  8
0
370
     0
390
0
  6
Continuous
 62
   174
100
AcDbVertex
100
AcDb2dVertex
 10
64.886434
 20
-305.25691
 30
0.0
 70
     8
  0
VERTEX
  5
203
100
AcDbEntity
  8
0
370
     0
390
0
  6
Continuous
 62
   174
100
AcDbVertex
100
AcDb2dVertex
 10
64.836483
 20
-305.267129
 30
0.0
 70
     8
  0
VERTEX
  5
204
100
AcDbEntity
  8
0
370
     0
390
0
  6
Continuous
 62
   174
100
AcDbVertex
100
AcDb2dVertex
 10
64.786509
 20
-305.277243
 30
0.0
 70
     8
  0
VERTEX
  5
205
100
AcDbEntity
  8
0
370
     0
390
0
  6
Continuous
 62
   174
100
AcDbVertex
100
AcDb2dVertex
 10
64.736513
 20
-305.28726
 30
0.0
 70
     8
  0
VERTEX
  5
206
100
AcDbEntity
  8
0
370
     0
390
0
  6
Continuous
 62
   174
100
AcDbVertex
100
AcDb2dVertex
 10
64.686495
 20
-305.297183
 30
0.0
 70
     8
  0
VERTEX
  5
207
100
AcDbEntity
  8
0
370
     0
390
0
  6
Continuous
 62
   174
100
AcDbVertex
100
AcDb2dVertex
 10
64.636459
 20
-305.307019
 30
0.0
 70
     8
  0
VERTEX
  5
208
100
AcDbEntity
  8
0
370
     0
390
0
  6
Continuous
 62
   174
100
AcDbVertex
100
AcDb2dVertex
 10
64.586403
 20
-305.316774
 30
0.0
 70
     8
  0
VERTEX
  5
209
100
AcDbEntity
  8
0
370
     0
390
0
  6
Continuous
 62
   174
100
AcDbVertex
100
AcDb2dVertex
 10
64.536331
 20
-305.326453
 30
0.0
 70
     8
  0
VERTEX
  5
20A
100
AcDbEntity
  8
0
370
     0
390
0
  6
Continuous
 62
   174
100
AcDbVertex
100
AcDb2dVertex
 10
64.486243
 20
-305.336062
 30
0.0
 70
     8
  0
VERTEX
  5
20B
100
AcDbEntity
  8
0
370
     0
390
0
  6
Continuous
 62
   174
100
AcDbVertex
100
AcDb2dVertex
 10
64.436141
 20
-305.345607
 30
0.0
 70
     8
  0
VERTEX
  5
20C
100
AcDbEntity
  8
0
370
     0
390
0
  6
Continuous
 62
   174
100
AcDbVertex
100
AcDb2dVertex
 10
64.386025
 20
-305.355092
 30
0.0
 70
     8
  0
VERTEX
  5
20D
100
AcDbEntity
  8
0
370
     0
390
0
  6
Continuous
 62
   174
100
AcDbVertex
100
AcDb2dVertex
 10
64.335898
 20
-305.364525
 30
0.0
 70
     8
  0
VERTEX
  5
20E
100
AcDbEntity
  8
0
370
     0
390
0
  6
Continuous
 62
   174
100
AcDbVertex
100
AcDb2dVertex
 10
64.28576
 20
-305.373911
 30
0.0
 70
     8
  0
VERTEX
  5
20F
100
AcDbEntity
  8
0
370
     0
390
0
  6
Continuous
 62
   174
100
AcDbVertex
100
AcDb2dVertex
 10
64.235612
 20
-305.383255
 30
0.0
 70
     8
  0
VERTEX
  5
210
100
AcDbEntity
  8
0
370
     0
390
0
  6
Continuous
 62
   174
100
AcDbVertex
100
AcDb2dVertex
 10
64.185456
 20
-305.392563
 30
0.0
 70
     8
  0
VERTEX
  5
211
100
AcDbEntity
  8
0
370
     0
390
0
  6
Continuous
 62
   174
100
AcDbVertex
100
AcDb2dVertex
 10
64.135294
 20
-305.40184
 30
0.0
 70
     8
  0
VERTEX
  5
212
100
AcDbEntity
  8
0
370
     0
390
0
  6
Continuous
 62
   174
100
AcDbVertex
100
AcDb2dVertex
 10
64.085126
 20
-305.411093
 30
0.0
 70
     8
  0
VERTEX
  5
213
100
AcDbEntity
  8
0
370
     0
390
0
  6
Continuous
 62
   174
100
AcDbVertex
100
AcDb2dVertex
 10
64.034954
 20
-305.420327
 30
0.0
 70
     8
  0
VERTEX
  5
214
100
AcDbEntity
  8
0
370
     0
390
0
  6
Continuous
 62
   174
100
AcDbVertex
100
AcDb2dVertex
 10
63.984779
 20
-305.429548
 30
0.0
 70
     8
  0
VERTEX
  5
215
100
AcDbEntity
  8
0
370
     0
390
0
  6
Continuous
 62
   174
100
AcDbVertex
100
AcDb2dVertex
 10
63.934602
 20
-305.438761
 30
0.0
 70
     8
  0
VERTEX
  5
216
100
AcDbEntity
  8
0
370
     0
390
0
  6
Continuous
 62
   174
100
AcDbVertex
100
AcDb2dVertex
 10
63.884424
 20
-305.447973
 30
0.0
 70
     8
  0
VERTEX
  5
217
100
AcDbEntity
  8
0
370
     0
390
0
  6
Continuous
 62
   174
100
AcDbVertex
100
AcDb2dVertex
 10
63.834248
 20
-305.457188
 30
0.0
 70
     8
  0
VERTEX
  5
218
100
AcDbEntity
  8
0
370
     0
390
0
  6
Continuous
 62
   174
100
AcDbVertex
100
AcDb2dVertex
 10
63.784074
 20
-305.466412
 30
0.0
 70
     8
  0
VERTEX
  5
219
100
AcDbEntity
  8
0
370
     0
390
0
  6
Continuous
 62
   174
100
AcDbVertex
100
AcDb2dVertex
 10
63.733903
 20
-305.475652
 30
0.0
 70
     8
  0
VERTEX
  5
21A
100
AcDbEntity
  8
0
370
     0
390
0
  6
Continuous
 62
   174
100
AcDbVertex
100
AcDb2dVertex
 10
63.683736
 20
-305.484913
 30
0.0
 70
     8
  0
VERTEX
  5
21B
100
AcDbEntity
  8
0
370
     0
390
0
  6
Continuous
 62
   174
100
AcDbVertex
100
AcDb2dVertex
 10
63.633576
 20
-305.4942
 30
0.0
 70
     8
  0
VERTEX
  5
21C
100
AcDbEntity
  8
0
370
     0
390
0
  6
Continuous
 62
   174
100
AcDbVertex
100
AcDb2dVertex
 10
63.583423
 20
-305.503519
 30
0.0
 70
     8
  0
VERTEX
  5
21D
100
AcDbEntity
  8
0
370
     0
390
0
  6
Continuous
 62
   174
100
AcDbVertex
100
AcDb2dVertex
 10
63.533278
 20
-305.512876
 30
0.0
 70
     8
  0
VERTEX
  5
21E
100
AcDbEntity
  8
0
370
     0
390
0
  6
Continuous
 62
   174
100
AcDbVertex
100
AcDb2dVertex
 10
63.483144
 20
-305.522277
 30
0.0
 70
     8
  0
VERTEX
  5
21F
100
AcDbEntity
  8
0
370
     0
390
0
  6
Continuous
 62
   174
100
AcDbVertex
100
AcDb2dVertex
 10
63.43302
 20
-305.531727
 30
0.0
 70
     8
  0
VERTEX
  5
220
100
AcDbEntity
  8
0
370
     0
390
0
  6
Continuous
 62
   174
100
AcDbVertex
100
AcDb2dVertex
 10
63.382909
 20
-305.541232
 30
0.0
 70
     8
  0
VERTEX
  5
221
100
AcDbEntity
  8
0
370
     0
390
0
  6
Continuous
 62
   174
100
AcDbVertex
100
AcDb2dVertex
 10
63.332811
 20
-305.550797
 30
0.0
 70
     8
  0
VERTEX
  5
222
100
AcDbEntity
  8
0
370
     0
390
0
  6
Continuous
 62
   174
100
AcDbVertex
100
AcDb2dVertex
 10
63.282728
 20
-305.560429
 30
0.0
 70
     8
  0
VERTEX
  5
223
100
AcDbEntity
  8
0
370
     0
390
0
  6
Continuous
 62
   174
100
AcDbVertex
100
AcDb2dVertex
 10
63.232661
 20
-305.570132
 30
0.0
 70
     8
  0
VERTEX
  5
224
100
AcDbEntity
  8
0
370
     0
390
0
  6
Continuous
 62
   174
100
AcDbVertex
100
AcDb2dVertex
 10
63.182612
 20
-305.579914
 30
0.0
 70
     8
  0
VERTEX
  5
225
100
AcDbEntity
  8
0
370
     0
390
0
  6
Continuous
 62
   174
100
AcDbVertex
100
AcDb2dVertex
 10
63.132582
 20
-305.589778
 30
0.0
 70
     8
  0
VERTEX
  5
226
100
AcDbEntity
  8
0
370
     0
390
0
  6
Continuous
 62
   174
100
AcDbVertex
100
AcDb2dVertex
 10
63.082571
 20
-305.599732
 30
0.0
  0
SEQEND
  5
227
100
AcDbEntity
  8
0
370
     0
390
0
  6
Continuous
 62
   174
  0
POLYLINE
  5
228
100
AcDbEntity
  8
0
370
     0
390
0
  6
Continuous
 62
   174
100
AcDb2dPolyline
 66
     1
 10
0.0
 20
0.0
 30
0.0
 70
   128
  0
VERTEX
  5
229
100
AcDbEntity
  8
0
370
     0
390
0
  6
Continuous
 62
   174
100
AcDbVertex
100
AcDb2dVertex
 10
1.582571
 20
-298.349732
 30
0.0
  0
VERTEX
  5
22A
100
AcDbEntity
  8
0
370
     0
390
0
  6
Continuous
 62
   174
100
AcDbVertex
100
AcDb2dVertex
 10
1.582571
 20
-288.349732
 30
0.0
  0
VERTEX
  5
22B
100
AcDbEntity
  8
0
370
     0
390
0
  6
Continuous
 62
   174
100
AcDbVertex
100
AcDb2dVertex
 10
16.582571
 20
-288.349732
 30
0.0
  0
SEQEND
  5
22C
100
AcDbEntity
  8
0
370
     0
390
0
  6
Continuous
 62
   174
  0
POLYLINE
  5
22D
100
AcDbEntity
  8
0
370
     0
390
0
  6
Continuous
 62
   174
100
AcDb2dPolyline
 66
     1
 10
0.0
 20
0.0
 30
0.0
 70
   128
  0
VERTEX
  5
22E
100
AcDbEntity
  8
0
370
     0
390
0
  6
Continuous
 62
   174
100
AcDbVertex
100
AcDb2dVertex
 10
769.582571
 20
-298.349732
 30
0.0
  0
VERTEX
  5
22F
100
AcDbEntity
  8
0
370
     0
390
0
  6
Continuous
 62
   174
100
AcDbVertex
100
AcDb2dVertex
 10
769.582571
 20
-288.349732
 30
0.0
  0
VERTEX
  5
230
100
AcDbEntity
  8
0
370
     0
390
0
  6
Continuous
 62
   174
100
AcDbVertex
100
AcDb2dVertex
 10
754.582571
 20
-288.349732
 30
0.0
  0
SEQEND
  5
231
100
AcDbEntity
  8
0
370
     0
390
0
  6
Continuous
 62
   174
  0
INSERT
  5
23B
100
AcDbEntity
  8
0
370
     0
390
0
  6
Continuous
 62
   174
100
AcDbBlockReference
  2
DRAPE
 10
655.582571
 20
-84.349732
 30
0.0
 50
90.0
  0
INSERT
  5
23C
100
AcDbEntity
  8
0
370
     0
390
0
  6
Continuous
 62
   174
100
AcDbBlockReference
  2
DRAPE
 10
667.582571
 20
-84.349732
 30
0.0
 50
90.0
  0
INSERT
  5
23D
100
AcDbEntity
  8
0
370
     0
390
0
  6
Continuous
 62
   174
100
AcDbBlockReference
  2
DRAPE
 10
679.582571
 20
-84.349732
 30
0.0
 50
90.0
  0
INSERT
  5
23E
100
AcDbEntity
  8
0
370
     0
390
0
  6
Continuous
 62
   174
100
AcDbBlockReference
  2
DRAPE
 10
691.582571
 20
-84.349732
 30
0.0
 50
90.0
  0
INSERT
  5
23F
100
AcDbEntity
  8
0
370
     0
390
0
  6
Continuous
 62
   174
100
AcDbBlockReference
  2
DRAPE
 10
703.582571
 20
-84.349732
 30
0.0
 50
90.0
  0
INSERT
  5
240
100
AcDbEntity
  8
0
370
     0
390
0
  6
Continuous
 62
   174
100
AcDbBlockReference
  2
DRAPE
 10
715.582571
 20
-84.349732
 30
0.0
 50
90.0
  0
INSERT
  5
241
100
AcDbEntity
  8
0
370
     0
390
0
  6
Continuous
 62
   174
100
AcDbBlockReference
  2
DRAPE
 10
727.582571
 20
-84.349732
 30
0.0
 50
90.0
  0
INSERT
  5
242
100
AcDbEntity
  8
0
370
     0
390
0
  6
Continuous
 62
   174
100
AcDbBlockReference
  2
DRAPE
 10
739.582571
 20
-84.349731
 30
0.0
 50
90.0
  0
INSERT
  5
243
100
AcDbEntity
  8
0
370
     0
390
0
  6
Continuous
 62
   174
100
AcDbBlockReference
  2
DRAPE
 10
751.582571
 20
-84.349731
 30
0.0
 50
90.0
  0
INSERT
  5
244
100
AcDbEntity
  8
0
370
     0
390
0
  6
Continuous
 62
   174
100
AcDbBlockReference
  2
DRAPE
 10
115.582571
 20
-84.349732
 30
0.0
 41
-1.0
 50
270.0
  0
INSERT
  5
245
100
AcDbEntity
  8
0
370
     0
390
0
  6
Continuous
 62
   174
100
AcDbBlockReference
  2
DRAPE
 10
103.582571
 20
-84.349732
 30
0.0
 41
-1.0
 50
270.0
  0
INSERT
  5
246
100
AcDbEntity
  8
0
370
     0
390
0
  6
Continuous
 62
   174
100
AcDbBlockReference
  2
DRAPE
 10
91.582571
 20
-84.349732
 30
0.0
 41
-1.0
 50
270.0
  0
INSERT
  5
247
100
AcDbEntity
  8
0
370
     0
390
0
  6
Continuous
 62
   174
100
AcDbBlockReference
  2
DRAPE
 10
79.582571
 20
-84.349732
 30
0.0
 41
-1.0
 50
270.0
  0
INSERT
  5
248
100
AcDbEntity
  8
0
370
     0
390
0
  6
Continuous
 62
   174
100
AcDbBlockReference
  2
DRAPE
 10
67.582571
 20
-84.349732
 30
0.0
 41
-1.0
 50
270.0
  0
INSERT
  5
249
100
AcDbEntity
  8
0
370
     0
390
0
  6
Continuous
 62
   174
100
AcDbBlockReference
  2
DRAPE
 10
55.582571
 20
-84.349732
 30
0.0
 41
-1.0
 50
270.0
  0
INSERT
  5
24A
100
AcDbEntity
  8
0
370
     0
390
0
  6
Continuous
 62
   174
100
AcDbBlockReference
  2
DRAPE
 10
43.582571
 20
-84.349732
 30
0.0
 41
-1.0
 50
270.0
  0
INSERT
  5
24B
100
AcDbEntity
  8
0
370
     0
390
0
  6
Continuous
 62
   174
100
AcDbBlockReference
  2
DRAPE
 10
31.582571
 20
-84.349731
 30
0.0
 41
-1.0
 50
270.0
  0
CIRCLE
  5
24C
100
AcDbEntity
  8
0
370
     0
390
0
  6
Continuous
 62
   174
100
AcDbCircle
 10
757.582571
 20
-78.349732
 30
0.0
 40
1.0
  0
CIRCLE
  5
24D
100
AcDbEntity
  8
0
370
     0
390
0
  6
Continuous
 62
   174
100
AcDbCircle
 10
757.582571
 20
-55.349732
 30
0.0
 40
1.0
  0
CIRCLE
  5
24E
100
AcDbEntity
  8
0
370
     0
390
0
  6
Continuous
 62
   174
100
AcDbCircle
 10
13.582571
 20
-55.349732
 30
0.0
 40
1.0
  0
LINE
  5
250
100
AcDbEntity
  8
0
370
     0
390
0
  6
DASHED
 62
   174
100
AcDbLine
 10
385.582571
 20
-298.349732
 30
0.0
 11
745.582571
 21
-298.349732
 31
0.0
  0
LINE
  5
251
100
AcDbEntity
  8
0
370
     0
390
0
  6
DASHED
 62
   174
100
AcDbLine
 10
385.582571
 20
-298.349732
 30
0.0
 11
25.582571
 21
-298.349732
 31
0.0
  0
CIRCLE
  5
252
100
AcDbEntity
  8
0
370
     0
390
0
  6
Continuous
 62
   174
100
AcDbCircle
 10
13.582571
 20
-78.349732
 30
0.0
 40
1.0
  0
LINE
  5
253
100
AcDbEntity
  8
0
370
     0
390
0
  6
Continuous
 62
   174
100
AcDbLine
 10
130.582371
 20
-25.349732
 30
0.0
 11
-52.417629
 21
-25.349732
 31
0.0
  0
LINE
  5
254
100
AcDbEntity
  8
0
370
     0
390
0
  6
Continuous
 62
   174
100
AcDbLine
 10
640.582371
 20
-25.349732
 30
0.0
 11
823.582371
 21
-25.349732
 31
0.0
  0
POLYLINE
  5
255
100
AcDbEntity
  8
0
370
     0
390
0
  6
Continuous
 62
   174
100
AcDb2dPolyline
 66
     1
 10
0.0
 20
0.0
 30
0.0
 70
   128
  0
VERTEX
  5
256
100
AcDbEntity
  8
0
370
     0
390
0
  6
Continuous
 62
   174
100
AcDbVertex
100
AcDb2dVertex
 10
823.582371
 20
-40.349732
 30
0.0
  0
VERTEX
  5
257
100
AcDbEntity
  8
0
370
     0
390
0
  6
Continuous
 62
   174
100
AcDbVertex
100
AcDb2dVertex
 10
640.582371
 20
-40.349732
 30
0.0
  0
VERTEX
  5
258
100
AcDbEntity
  8
0
370
     0
390
0
  6
Continuous
 62
   174
100
AcDbVertex
100
AcDb2dVertex
 10
640.582371
 20
-43.349732
 30
0.0
  0
VERTEX
  5
259
100
AcDbEntity
  8
0
370
     0
390
0
  6
Continuous
 62
   174
100
AcDbVertex
100
AcDb2dVertex
 10
616.582371
 20
-43.349732
 30
0.0
  0
VERTEX
  5
25A
100
AcDbEntity
  8
0
370
     0
390
0
  6
Continuous
 62
   174
100
AcDbVertex
100
AcDb2dVertex
 10
616.582371
 20
91.650268
 30
0.0
  0
SEQEND
  5
25B
100
AcDbEntity
  8
0
370
     0
390
0
  6
Continuous
 62
   174
  0
POLYLINE
  5
25C
100
AcDbEntity
  8
0
370
     0
390
0
  6
Continuous
 62
   174
100
AcDb2dPolyline
 66
     1
 10
0.0
 20
0.0
 30
0.0
 70
   128
  0
VERTEX
  5
25D
100
AcDbEntity
  8
0
370
     0
390
0
  6
Continuous
 62
   174
100
AcDbVertex
100
AcDb2dVertex
 10
640.582371
 20
-25.349732
 30
0.0
  0
VERTEX
  5
25E
100
AcDbEntity
  8
0
370
     0
390
0
  6
Continuous
 62
   174
100
AcDbVertex
100
AcDb2dVertex
 10
640.582371
 20
-22.349732
 30
0.0
  0
VERTEX
  5
25F
100
AcDbEntity
  8
0
370
     0
390
0
  6
Continuous
 62
   174
100
AcDbVertex
100
AcDb2dVertex
 10
625.582371
 20
-22.349732
 30
0.0
  0
VERTEX
  5
260
100
AcDbEntity
  8
0
370
     0
390
0
  6
Continuous
 62
   174
100
AcDbVertex
100
AcDb2dVertex
 10
625.582371
 20
91.650268
 30
0.0
  0
SEQEND
  5
261
100
AcDbEntity
  8
0
370
     0
390
0
  6
Continuous
 62
   174
  0
POLYLINE
  5
262
100
AcDbEntity
  8
0
370
     0
390
0
  6
Continuous
 62
   174
100
AcDb2dPolyline
 66
     1
 10
0.0
 20
0.0
 30
0.0
 70
   128
  0
VERTEX
  5
263
100
AcDbEntity
  8
0
370
     0
390
0
  6
Continuous
 62
   174
100
AcDbVertex
100
AcDb2dVertex
 10
-52.417629
 20
-40.349732
 30
0.0
  0
VERTEX
  5
264
100
AcDbEntity
  8
0
370
     0
390
0
  6
Continuous
 62
   174
100
AcDbVertex
100
AcDb2dVertex
 10
130.582371
 20
-40.349732
 30
0.0
  0
VERTEX
  5
265
100
AcDbEntity
  8
0
370
     0
390
0
  6
Continuous
 62
   174
100
AcDbVertex
100
AcDb2dVertex
 10
130.582371
 20
-43.349732
 30
0.0
  0
VERTEX
  5
266
100
AcDbEntity
  8
0
370
     0
390
0
  6
Continuous
 62
   174
100
AcDbVertex
100
AcDb2dVertex
 10
154.582371
 20
-43.349732
 30
0.0
  0
VERTEX
  5
267
100
AcDbEntity
  8
0
370
     0
390
0
  6
Continuous
 62
   174
100
AcDbVertex
100
AcDb2dVertex
 10
154.582371
 20
91.650268
 30
0.0
  0
SEQEND
  5
268
100
AcDbEntity
  8
0
370
     0
390
0
  6
Continuous
 62
   174
  0
POLYLINE
  5
269
100
AcDbEntity
  8
0
370
     0
390
0
  6
Continuous
 62
   174
100
AcDb2dPolyline
 66
     1
 10
0.0
 20
0.0
 30
0.0
 70
   128
  0
VERTEX
  5
26A
100
AcDbEntity
  8
0
370
     0
390
0
  6
Continuous
 62
   174
100
AcDbVertex
100
AcDb2dVertex
 10
130.582371
 20
-25.349732
 30
0.0
  0
VERTEX
  5
26B
100
AcDbEntity
  8
0
370
     0
390
0
  6
Continuous
 62
   174
100
AcDbVertex
100
AcDb2dVertex
 10
130.582371
 20
-22.349732
 30
0.0
  0
VERTEX
  5
26C
100
AcDbEntity
  8
0
370
     0
390
0
  6
Continuous
 62
   174
100
AcDbVertex
100
AcDb2dVertex
 10
145.582371
 20
-22.349732
 30
0.0
  0
VERTEX
  5
26D
100
AcDbEntity
  8
0
370
     0
390
0
  6
Continuous
 62
   174
100
AcDbVertex
100
AcDb2dVertex
 10
145.582371
 20
91.650268
 30
0.0
  0
SEQEND
  5
26E
100
AcDbEntity
  8
0
370
     0
390
0
  6
Continuous
 62
   174
  0
LINE
  5
26F
100
AcDbEntity
  8
0
370
     0
390
0
  6
Continuous
 62
   174
100
AcDbLine
 10
145.582371
 20
91.650268
 30
0.0
 11
154.582371
 21
91.650268
 31
0.0
  0
LINE
  5
270
100
AcDbEntity
  8
0
370
     0
390
0
  6
Continuous
 62
   174
100
AcDbLine
 10
616.582371
 20
91.650268
 30
0.0
 11
625.582371
 21
91.650268
 31
0.0
  0
LINE
  5
271
100
AcDbEntity
  8
0
370
     0
390
0
  6
DASHED
 62
   174
100
AcDbLine
 10
154.582371
 20
-43.349732
 30
0.0
 11
616.582371
 21
-43.349732
 31
0.0
  0
LINE
  5
272
100
AcDbEntity
  8
0
370
     0
390
0
  6
DASHED
 62
   174
100
AcDbLine
 10
154.582371
 20
91.650268
 30
0.0
 11
154.582371
 21
190.650268
 31
0.0
  0
LINE
  5
273
100
AcDbEntity
  8
0
370
     0
390
0
  6
DASHED
 62
   174
100
AcDbLine
 10
145.582371
 20
91.650268
 30
0.0
 11
145.582371
 21
190.650268
 31
0.0
  0
LINE
  5
274
100
AcDbEntity
  8
0
370
     0
390
0
  6
DASHED
 62
   174
100
AcDbLine
 10
616.582371
 20
91.650268
 30
0.0
 11
616.582371
 21
190.650268
 31
0.0
  0
LINE
  5
275
100
AcDbEntity
  8
0
370
     0
390
0
  6
DASHED
 62
   174
100
AcDbLine
 10
625.582371
 20
91.650268
 30
0.0
 11
625.582371
 21
190.650268
 31
0.0
  0
LINE
  5
276
100
AcDbEntity
  8
0
370
     0
390
0
  6
Continuous
 62
   174
100
AcDbLine
 10
-52.417629
 20
-25.349732
 30
0.0
 11
-52.417629
 21
-40.349732
 31
0.0
  0
HATCH
  5
277
100
AcDbEntity
  8
0
370
     0
390
0
  6
Continuous
 62
    94
100
AcDbHatch
 10
0.0
 20
0.0
 30
0.0
210
0.0
220
0.0
230
1.0
  2
BRICK_STONE
 70
     0
 71
     0
 91
        1
 92
        1
 93
       10
 72
     1
 10
130.58237070729922
 20
-25.349731919125333
 11
-52.417629292700781
 21
-25.349731919125304
 72
     1
 10
-52.417629292700781
 20
-25.349731919125304
 11
-52.417629292700781
 21
-40.349731919125333
 72
     1
 10
-52.417629292700781
 20
-40.349731919125333
 11
130.58237070729922
 21
-40.349731919125333
 72
     1
 10
130.58237070729922
 20
-40.349731919125333
 11
130.58237070729922
 21
-43.349731919125333
 72
     1
 10
130.58237070729922
 20
-43.349731919125333
 11
154.58237070729922
 21
-43.349731919125333
 72
     1
 10
154.58237070729922
 20
-43.349731919125333
 11
154.58237070729911
 21
91.650268080874724
 72
     1
 10
154.58237070729911
 20
91.650268080874724
 11
145.58237070729911
 21
91.650268080874781
 72
     1
 10
145.58237070729911
 20
91.650268080874781
 11
145.58237070729922
 21
-22.349731919125333
 72
     1
 10
145.58237070729922
 20
-22.349731919125333
 11
130.58237070729922
 21
-22.349731919125333
 72
     1
 10
130.58237070729922
 20
-22.349731919125333
 11
130.58237070729922
 21
-25.349731919125333
 97
        0
 75
     0
 76
     1
 52
0.0
 41
6.0
 77
     0
 78
     8
 53
0.0
 43
0.0
 44
0.0
 45
0.0
 46
1.98
 79
     0
 53
90.0
 43
5.4
 44
0.0
 45
-3.0
 46
1.9800000000000004
 79
     2
 49
1.98
 49
-1.98
 53
90.0
 43
4.8
 44
0.0
 45
-3.0
 46
1.9800000000000004
 79
     2
 49
1.98
 49
-1.98
 53
0.0
 43
5.4
 44
0.33
 45
3.0
 46
1.98
 79
     2
 49
-5.4
 49
0.6
 53
0.0
 43
5.4
 44
0.66
 45
3.0
 46
1.98
 79
     2
 49
-5.4
 49
0.6
 53
0.0
 43
5.4
 44
0.99
 45
3.0
 46
1.98
 79
     2
 49
-5.4
 49
0.6
 53
0.0
 43
5.4
 44
1.32
 45
3.0
 46
1.98
 79
     2
 49
-5.4
 49
0.6
 53
0.0
 43
5.4
 44
1.65
 45
3.0
 46
1.98
 79
     2
 49
-5.4
 49
0.6
 98
        1
 10
0.0
 20
0.0
  0
LINE
  5
278
100
AcDbEntity
  8
0
370
     0
390
0
  6
Continuous
 62
   174
100
AcDbLine
 10
823.582371
 20
-25.349732
 30
0.0
 11
823.582371
 21
-40.349732
 31
0.0
  0
HATCH
  5
279
100
AcDbEntity
  8
0
370
     0
390
0
  6
Continuous
 62
    94
100
AcDbHatch
 10
0.0
 20
0.0
 30
0.0
210
0.0
220
0.0
230
1.0
  2
BRICK_STONE
 70
     0
 71
     0
 91
        1
 92
        1
 93
       10
 72
     1
 10
640.58237070729911
 20
-25.349731919125361
 11
823.58237070729911
 21
-25.349731919125361
 72
     1
 10
823.58237070729911
 20
-25.349731919125361
 11
823.58237070729911
 21
-40.349731919125389
 72
     1
 10
823.58237070729911
 20
-40.349731919125389
 11
640.58237070729911
 21
-40.349731919125361
 72
     1
 10
640.58237070729911
 20
-40.349731919125361
 11
640.58237070729911
 21
-43.349731919125361
 72
     1
 10
640.58237070729911
 20
-43.349731919125361
 11
616.58237070729911
 21
-43.349731919125361
 72
     1
 10
616.58237070729911
 20
-43.349731919125361
 11
616.58237070729911
 21
91.650268080874667
 72
     1
 10
616.58237070729911
 20
91.650268080874667
 11
625.58237070729911
 21
91.650268080874667
 72
     1
 10
625.58237070729911
 20
91.650268080874667
 11
625.58237070729911
 21
-22.349731919125361
 72
     1
 10
625.58237070729911
 20
-22.349731919125361
 11
640.58237070729911
 21
-22.349731919125361
 72
     1
 10
640.58237070729911
 20
-22.349731919125361
 11
640.58237070729911
 21
-25.349731919125361
 97
        0
 75
     0
 76
     1
 52
0.0
 41
6.0
 77
     0
 78
     8
 53
0.0
 43
0.0
 44
0.0
 45
0.0
 46
1.98
 79
     0
 53
90.0
 43
5.4
 44
0.0
 45
-3.0
 46
1.9800000000000004
 79
     2
 49
1.98
 49
-1.98
 53
90.0
 43
4.8
 44
0.0
 45
-3.0
 46
1.9800000000000004
 79
     2
 49
1.98
 49
-1.98
 53
0.0
 43
5.4
 44
0.33
 45
3.0
 46
1.98
 79
     2
 49
-5.4
 49
0.6
 53
0.0
 43
5.4
 44
0.66
 45
3.0
 46
1.98
 79
     2
 49
-5.4
 49
0.6
 53
0.0
 43
5.4
 44
0.99
 45
3.0
 46
1.98
 79
     2
 49
-5.4
 49
0.6
 53
0.0
 43
5.4
 44
1.32
 45
3.0
 46
1.98
 79
     2
 49
-5.4
 49
0.6
 53
0.0
 43
5.4
 44
1.65
 45
3.0
 46
1.98
 79
     2
 49
-5.4
 49
0.6
 98
        1
 10
0.0
 20
0.0
  0
HATCH
  5
27A
100
AcDbEntity
  8
0
370
     0
390
0
  6
Continuous
 62
    94
100
AcDbHatch
 10
0.0
 20
0.0
 30
0.0
210
0.0
220
0.0
230
1.0
  2
BRICK_STONE
 70
     0
 71
     0
 91
        2
 92
        1
 93
        7
 72
     1
 10
745.58257130014101
 20
-298.34973191912536
 11
745.58257130014101
 21
-310.34973191912536
 72
     1
 10
745.58257130014101
 20
-310.34973191912536
 11
759.58257130014101
 21
-336.34973191912536
 72
     1
 10
759.58257130014101
 20
-336.34973191912536
 11
820.58257130014113
 21
-336.34973191912536
 72
     1
 10
820.58257130014113
 20
-336.34973191912536
 11
820.58257130014113
 21
-328.34973191912536
 72
     1
 10
820.58257130014113
 20
-328.34973191912536
 11
814.58257130014101
 21
-328.34973191912536
 72
     1
 10
814.58257130014101
 20
-328.34973191912536
 11
814.58257130014101
 21
-298.34973191912536
 72
     1
 10
814.58257130014101
 20
-298.34973191912536
 11
745.58257130014101
 21
-298.34973191912536
 97
        0
 92
        1
 93
        7
 72
     1
 10
754.58257130014101
 20
-304.34973191912536
 11
806.58257130014101
 21
-304.34973191912536
 72
     1
 10
806.58257130014101
 20
-304.34973191912536
 11
806.58257130014101
 21
-312.34973191912536
 72
     1
 10
806.58257130014101
 20
-312.34973191912536
 11
782.58257130014101
 21
-312.34973191912536
 72
     1
 10
782.58257130014101
 20
-312.34973191912536
 11
782.58257130014101
 21
-330.34973191912536
 72
     1
 10
782.58257130014101
 20
-330.34973191912536
 11
764.58257130014101
 21
-330.34973191912536
 72
     1
 10
764.58257130014101
 20
-330.34973191912536
 11
754.58257130014101
 21
-310.34973191912536
 72
     1
 10
754.58257130014101
 20
-310.34973191912536
 11
754.58257130014101
 21
-304.34973191912536
 97
        0
 75
     0
 76
     1
 52
0.0
 41
6.0
 77
     0
 78
     8
 53
0.0
 43
0.0
 44
0.0
 45
0.0
 46
1.98
 79
     0
 53
90.0
 43
5.4
 44
0.0
 45
-3.0
 46
1.9800000000000004
 79
     2
 49
1.98
 49
-1.98
 53
90.0
 43
4.8
 44
0.0
 45
-3.0
 46
1.9800000000000004
 79
     2
 49
1.98
 49
-1.98
 53
0.0
 43
5.4
 44
0.33
 45
3.0
 46
1.98
 79
     2
 49
-5.4
 49
0.6
 53
0.0
 43
5.4
 44
0.66
 45
3.0
 46
1.98
 79
     2
 49
-5.4
 49
0.6
 53
0.0
 43
5.4
 44
0.99
 45
3.0
 46
1.98
 79
     2
 49
-5.4
 49
0.6
 53
0.0
 43
5.4
 44
1.32
 45
3.0
 46
1.98
 79
     2
 49
-5.4
 49
0.6
 53
0.0
 43
5.4
 44
1.65
 45
3.0
 46
1.98
 79
     2
 49
-5.4
 49
0.6
 98
        1
 10
0.0
 20
0.0
  0
HATCH
  5
27B
100
AcDbEntity
  8
0
370
     0
390
0
  6
Continuous
 62
    94
100
AcDbHatch
 10
0.0
 20
0.0
 30
0.0
210
0.0
220
0.0
230
1.0
  2
BRICK_STONE
 70
     0
 71
     0
 91
        2
 92
        1
 93
        7
 72
     1
 10
25.582571300140955
 20
-298.34973191912525
 11
25.582571300140955
 21
-310.34973191912525
 72
     1
 10
25.582571300140955
 20
-310.34973191912525
 11
11.582571300140955
 21
-336.34973191912525
 72
     1
 10
11.582571300140955
 20
-336.34973191912525
 11
-49.417428699859158
 21
-336.34973191912525
 72
     1
 10
-49.417428699859158
 20
-336.34973191912525
 11
-49.417428699859158
 21
-328.34973191912525
 72
     1
 10
-49.417428699859158
 20
-328.34973191912525
 11
-43.417428699859045
 21
-328.34973191912525
 72
     1
 10
-43.417428699859045
 20
-328.34973191912525
 11
-43.417428699859045
 21
-298.34973191912525
 72
     1
 10
-43.417428699859045
 20
-298.34973191912525
 11
25.582571300140955
 21
-298.34973191912525
 97
        0
 92
        1
 93
        7
 72
     1
 10
16.582571300140955
 20
-304.34973191912525
 11
-35.417428699859045
 21
-304.34973191912525
 72
     1
 10
-35.417428699859045
 20
-304.34973191912525
 11
-35.417428699859045
 21
-312.34973191912525
 72
     1
 10
-35.417428699859045
 20
-312.34973191912525
 11
-11.417428699859045
 21
-312.34973191912525
 72
     1
 10
-11.417428699859045
 20
-312.34973191912525
 11
-11.417428699859045
 21
-330.34973191912525
 72
     1
 10
-11.417428699859045
 20
-330.34973191912525
 11
6.5825713001409554
 21
-330.34973191912525
 72
     1
 10
6.5825713001409554
 20
-330.34973191912525
 11
16.582571300140955
 21
-310.34973191912525
 72
     1
 10
16.582571300140955
 20
-310.34973191912525
 11
16.582571300140955
 21
-304.34973191912525
 97
        0
 75
     0
 76
     1
 52
0.0
 41
6.0
 77
     0
 78
     8
 53
0.0
 43
0.0
 44
0.0
 45
0.0
 46
1.98
 79
     0
 53
90.0
 43
5.4
 44
0.0
 45
-3.0
 46
1.9800000000000004
 79
     2
 49
1.98
 49
-1.98
 53
90.0
 43
4.8
 44
0.0
 45
-3.0
 46
1.9800000000000004
 79
     2
 49
1.98
 49
-1.98
 53
0.0
 43
5.4
 44
0.33
 45
3.0
 46
1.98
 79
     2
 49
-5.4
 49
0.6
 53
0.0
 43
5.4
 44
0.66
 45
3.0
 46
1.98
 79
     2
 49
-5.4
 49
0.6
 53
0.0
 43
5.4
 44
0.99
 45
3.0
 46
1.98
 79
     2
 49
-5.4
 49
0.6
 53
0.0
 43
5.4
 44
1.32
 45
3.0
 46
1.98
 79
     2
 49
-5.4
 49
0.6
 53
0.0
 43
5.4
 44
1.65
 45
3.0
 46
1.98
 79
     2
 49
-5.4
 49
0.6
 98
        1
 10
0.0
 20
0.0
  0
INSERT
  5
2D0
100
AcDbEntity
  8
0
370
     0
390
0
  6
Continuous
 62
   174
100
AcDbBlockReference
  2
centerline
 10
385.582571
 20
-531.849732
 30
0.0
  0
LINE
  5
2D2
100
AcDbEntity
  8
POS-HIDDEN
370
     0
390
0
  6
DOT
 62
     1
100
AcDbLine
 10
783.582571
 20
-85.831995
 30
0.0
 11
783.582571
 21
-89.587195
 31
0.0
  0
LINE
  5
2D3
100
AcDbEntity
  8
POS-HIDDEN
370
     0
390
0
  6
DOT
 62
     1
100
AcDbLine
 10
782.582571
 20
-85.637767
 30
0.0
 11
782.582571
 21
-89.810418
 31
0.0
  0
LINE
  5
2D4
100
AcDbEntity
  8
POS-HIDDEN
370
     0
390
0
  6
DOT
 62
     1
100
AcDbLine
 10
781.582571
 20
-85.780663
 30
0.0
 11
781.582571
 21
-89.363973
 31
0.0
  0
INSERT
  5
2D5
100
AcDbEntity
  8
0
370
     0
390
0
  6
Continuous
 62
   174
100
AcDbBlockReference
  2
DRAPE
 10
137.041668
 20
-279.569491
 30
0.0
 41
-1.0
 50
270.0
  0
INSERT
  5
2D6
100
AcDbEntity
  8
0
370
     0
390
0
  6
Continuous
 62
   174
100
AcDbBlockReference
  2
DRAPE
 10
125.041668
 20
-279.569491
 30
0.0
 41
-1.0
 50
270.0
  0
INSERT
  5
2D7
100
AcDbEntity
  8
0
370
     0
390
0
  6
Continuous
 62
   174
100
AcDbBlockReference
  2
DRAPE
 10
113.041668
 20
-279.569491
 30
0.0
 41
-1.0
 50
270.0
  0
INSERT
  5
2D8
100
AcDbEntity
  8
0
370
     0
390
0
  6
Continuous
 62
   174
100
AcDbBlockReference
  2
DRAPE
 10
101.041668
 20
-279.569491
 30
0.0
 41
-1.0
 50
270.0
  0
INSERT
  5
2D9
100
AcDbEntity
  8
0
370
     0
390
0
  6
Continuous
 62
   174
100
AcDbBlockReference
  2
DRAPE
 10
89.041668
 20
-279.569491
 30
0.0
 41
-1.0
 50
270.0
  0
INSERT
  5
2DA
100
AcDbEntity
  8
0
370
     0
390
0
  6
Continuous
 62
   174
100
AcDbBlockReference
  2
DRAPE
 10
77.041668
 20
-279.569491
 30
0.0
 41
-1.0
 50
270.0
  0
INSERT
  5
2DB
100
AcDbEntity
  8
0
370
     0
390
0
  6
Continuous
 62
   174
100
AcDbBlockReference
  2
DRAPE
 10
65.041668
 20
-279.569491
 30
0.0
 41
-1.0
 50
270.0
  0
INSERT
  5
2DC
100
AcDbEntity
  8
0
370
     0
390
0
  6
Continuous
 62
   174
100
AcDbBlockReference
  2
DRAPE
 10
53.041668
 20
-279.569491
 30
0.0
 41
-1.0
 50
270.0
  0
INSERT
  5
2DD
100
AcDbEntity
  8
0
370
     0
390
0
  6
Continuous
 62
   174
100
AcDbBlockReference
  2
DRAPE
 10
137.582571
 20
-194.349732
 30
0.0
 41
-1.0
 50
270.0
  0
INSERT
  5
2DE
100
AcDbEntity
  8
0
370
     0
390
0
  6
Continuous
 62
   174
100
AcDbBlockReference
  2
DRAPE
 10
125.582571
 20
-194.349732
 30
0.0
 41
-1.0
 50
270.0
  0
INSERT
  5
2DF
100
AcDbEntity
  8
0
370
     0
390
0
  6
Continuous
 62
   174
100
AcDbBlockReference
  2
DRAPE
 10
113.582571
 20
-194.349732
 30
0.0
 41
-1.0
 50
270.0
  0
INSERT
  5
2E0
100
AcDbEntity
  8
0
370
     0
390
0
  6
Continuous
 62
   174
100
AcDbBlockReference
  2
DRAPE
 10
101.582571
 20
-194.349732
 30
0.0
 41
-1.0
 50
270.0
  0
INSERT
  5
2E1
100
AcDbEntity
  8
0
370
     0
390
0
  6
Continuous
 62
   174
100
AcDbBlockReference
  2
DRAPE
 10
89.582571
 20
-194.349732
 30
0.0
 41
-1.0
 50
270.0
  0
INSERT
  5
2E2
100
AcDbEntity
  8
0
370
     0
390
0
  6
Continuous
 62
   174
100
AcDbBlockReference
  2
DRAPE
 10
77.582571
 20
-194.349732
 30
0.0
 41
-1.0
 50
270.0
  0
INSERT
  5
2E3
100
AcDbEntity
  8
0
370
     0
390
0
  6
Continuous
 62
   174
100
AcDbBlockReference
  2
DRAPE
 10
65.582571
 20
-194.349732
 30
0.0
 41
-1.0
 50
270.0
  0
INSERT
  5
2E4
100
AcDbEntity
  8
0
370
     0
390
0
  6
Continuous
 62
   174
100
AcDbBlockReference
  2
DRAPE
 10
137.582571
 20
-121.349732
 30
0.0
 41
-1.0
 50
270.0
  0
INSERT
  5
2E5
100
AcDbEntity
  8
0
370
     0
390
0
  6
Continuous
 62
   174
100
AcDbBlockReference
  2
DRAPE
 10
125.582571
 20
-121.349732
 30
0.0
 41
-1.0
 50
270.0
  0
INSERT
  5
2E6
100
AcDbEntity
  8
0
370
     0
390
0
  6
Continuous
 62
   174
100
AcDbBlockReference
  2
DRAPE
 10
113.582571
 20
-121.349732
 30
0.0
 41
-1.0
 50
270.0
  0
INSERT
  5
2E7
100
AcDbEntity
  8
0
370
     0
390
0
  6
Continuous
 62
   174
100
AcDbBlockReference
  2
DRAPE
 10
101.582571
 20
-121.349732
 30
0.0
 41
-1.0
 50
270.0
  0
INSERT
  5
2E8
100
AcDbEntity
  8
0
370
     0
390
0
  6
Continuous
 62
   174
100
AcDbBlockReference
  2
DRAPE
 10
89.582571
 20
-121.349732
 30
0.0
 41
-1.0
 50
270.0
  0
INSERT
  5
2E9
100
AcDbEntity
  8
0
370
     0
390
0
  6
Continuous
 62
   174
100
AcDbBlockReference
  2
DRAPE
 10
77.582571
 20
-121.349732
 30
0.0
 41
-1.0
 50
270.0
  0
INSERT
  5
2EA
100
AcDbEntity
  8
0
370
     0
390
0
  6
Continuous
 62
   174
100
AcDbBlockReference
  2
DRAPE
 10
65.582571
 20
-121.349732
 30
0.0
 41
-1.0
 50
270.0
  0
INSERT
  5
2EB
100
AcDbEntity
  8
0
370
     0
390
0
  6
Continuous
 62
   174
100
AcDbBlockReference
  2
DRAPE
 10
632.889237
 20
-279.162838
 30
0.0
 50
90.0
  0
INSERT
  5
2EC
100
AcDbEntity
  8
0
370
     0
390
0
  6
Continuous
 62
   174
100
AcDbBlockReference
  2
DRAPE
 10
644.889237
 20
-279.162838
 30
0.0
 50
90.0
  0
INSERT
  5
2ED
100
AcDbEntity
  8
0
370
     0
390
0
  6
Continuous
 62
   174
100
AcDbBlockReference
  2
DRAPE
 10
656.889237
 20
-279.162838
 30
0.0
 50
90.0
  0
INSERT
  5
2EE
100
AcDbEntity
  8
0
370
     0
390
0
  6
Continuous
 62
   174
100
AcDbBlockReference
  2
DRAPE
 10
668.889237
 20
-279.162838
 30
0.0
 50
90.0
  0
INSERT
  5
2EF
100
AcDbEntity
  8
0
370
     0
390
0
  6
Continuous
 62
   174
100
AcDbBlockReference
  2
DRAPE
 10
680.889237
 20
-279.162838
 30
0.0
 50
90.0
  0
INSERT
  5
2F0
100
AcDbEntity
  8
0
370
     0
390
0
  6
Continuous
 62
   174
100
AcDbBlockReference
  2
DRAPE
 10
692.889237
 20
-279.162838
 30
0.0
 50
90.0
  0
INSERT
  5
2F1
100
AcDbEntity
  8
0
370
     0
390
0
  6
Continuous
 62
   174
100
AcDbBlockReference
  2
DRAPE
 10
704.889237
 20
-279.162838
 30
0.0
 50
90.0
  0
INSERT
  5
2F2
100
AcDbEntity
  8
0
370
     0
390
0
  6
Continuous
 62
   174
100
AcDbBlockReference
  2
DRAPE
 10
716.889237
 20
-279.162837
 30
0.0
 50
90.0
  0
INSERT
  5
2F3
100
AcDbEntity
  8
0
370
     0
390
0
  6
Continuous
 62
   174
100
AcDbBlockReference
  2
DRAPE
 10
633.582571
 20
-194.349732
 30
0.0
 50
90.0
  0
INSERT
  5
2F4
100
AcDbEntity
  8
0
370
     0
390
0
  6
Continuous
 62
   174
100
AcDbBlockReference
  2
DRAPE
 10
645.582571
 20
-194.349732
 30
0.0
 50
90.0
  0
INSERT
  5
2F5
100
AcDbEntity
  8
0
370
     0
390
0
  6
Continuous
 62
   174
100
AcDbBlockReference
  2
DRAPE
 10
657.582571
 20
-194.349732
 30
0.0
 50
90.0
  0
INSERT
  5
2F6
100
AcDbEntity
  8
0
370
     0
390
0
  6
Continuous
 62
   174
100
AcDbBlockReference
  2
DRAPE
 10
669.582571
 20
-194.349732
 30
0.0
 50
90.0
  0
INSERT
  5
2F7
100
AcDbEntity
  8
0
370
     0
390
0
  6
Continuous
 62
   174
100
AcDbBlockReference
  2
DRAPE
 10
681.582571
 20
-194.349732
 30
0.0
 50
90.0
  0
INSERT
  5
2F8
100
AcDbEntity
  8
0
370
     0
390
0
  6
Continuous
 62
   174
100
AcDbBlockReference
  2
DRAPE
 10
693.582571
 20
-194.349732
 30
0.0
 50
90.0
  0
INSERT
  5
2F9
100
AcDbEntity
  8
0
370
     0
390
0
  6
Continuous
 62
   174
100
AcDbBlockReference
  2
DRAPE
 10
705.582571
 20
-194.349732
 30
0.0
 50
90.0
  0
INSERT
  5
2FA
100
AcDbEntity
  8
0
370
     0
390
0
  6
Continuous
 62
   174
100
AcDbBlockReference
  2
DRAPE
 10
633.582571
 20
-121.349732
 30
0.0
 50
90.0
  0
INSERT
  5
2FB
100
AcDbEntity
  8
0
370
     0
390
0
  6
Continuous
 62
   174
100
AcDbBlockReference
  2
DRAPE
 10
657.582571
 20
-121.349732
 30
0.0
 50
90.0
  0
INSERT
  5
2FC
100
AcDbEntity
  8
0
370
     0
390
0
  6
Continuous
 62
   174
100
AcDbBlockReference
  2
DRAPE
 10
669.582571
 20
-121.349732
 30
0.0
 50
90.0
  0
INSERT
  5
2FD
100
AcDbEntity
  8
0
370
     0
390
0
  6
Continuous
 62
   174
100
AcDbBlockReference
  2
DRAPE
 10
681.582571
 20
-121.349732
 30
0.0
 50
90.0
  0
INSERT
  5
2FE
100
AcDbEntity
  8
0
370
     0
390
0
  6
Continuous
 62
   174
100
AcDbBlockReference
  2
DRAPE
 10
693.582571
 20
-121.349732
 30
0.0
 50
90.0
  0
INSERT
  5
2FF
100
AcDbEntity
  8
0
370
     0
390
0
  6
Continuous
 62
   174
100
AcDbBlockReference
  2
DRAPE
 10
705.582571
 20
-121.349732
 30
0.0
 50
90.0
  0
TEXT
  5
301
100
AcDbEntity
  8
0
370
     0
390
0
  6
Continuous
 62
   174
100
AcDbText
 10
33.082571
 20
-307.099732
 30
0.0
 40
3.0
  1
Pilaster Line
  7
Vcadd_Handletter
100
AcDbText
  0
TEXT
  5
302
100
AcDbEntity
  8
0
370
     0
390
0
  6
Continuous
 62
   174
100
AcDbText
 10
433.582571
 20
-350.960584
 30
0.0
 40
4.0
  1
4'
 50
90.0
  7
Vcadd_Handletter
100
AcDbText
  0
TEXT
  5
303
100
AcDbEntity
  8
0
370
     0
390
0
  6
Continuous
 62
   174
100
AcDbText
 10
457.582571
 20
-350.960584
 30
0.0
 40
4.0
  1
6'
 50
90.0
  7
Vcadd_Handletter
100
AcDbText
  0
TEXT
  5
304
100
AcDbEntity
  8
0
370
     0
390
0
  6
Continuous
 62
   174
100
AcDbText
 10
481.582571
 20
-350.960584
 30
0.0
 40
4.0
  1
8'
 50
90.0
  7
Vcadd_Handletter
100
AcDbText
  0
TEXT
  5
305
100
AcDbEntity
  8
0
370
     0
390
0
  6
Continuous
 62
   174
100
AcDbText
 10
505.582571
 20
-350.960584
 30
0.0
 40
4.0
  1
10'
 50
90.0
  7
Vcadd_Handletter
100
AcDbText
  0
TEXT
  5
306
100
AcDbEntity
  8
0
370
     0
390
0
  6
Continuous
 62
   174
100
AcDbText
 10
529.582571
 20
-350.960584
 30
0.0
 40
4.0
  1
12'
 50
90.0
  7
Vcadd_Handletter
100
AcDbText
  0
TEXT
  5
307
100
AcDbEntity
  8
0
370
     0
390
0
  6
Continuous
 62
   174
100
AcDbText
 10
553.582571
 20
-350.960584
 30
0.0
 40
4.0
  1
14'
 50
90.0
  7
Vcadd_Handletter
100
AcDbText
  0
TEXT
  5
308
100
AcDbEntity
  8
0
370
     0
390
0
  6
Continuous
 62
   174
100
AcDbText
 10
577.582571
 20
-350.960584
 30
0.0
 40
4.0
  1
16'
 50
90.0
  7
Vcadd_Handletter
100
AcDbText
  0
TEXT
  5
309
100
AcDbEntity
  8
0
370
     0
390
0
  6
Continuous
 62
   174
100
AcDbText
 10
601.582571
 20
-350.960584
 30
0.0
 40
4.0
  1
18'
 50
90.0
  7
Vcadd_Handletter
100
AcDbText
  0
TEXT
  5
30A
100
AcDbEntity
  8
0
370
     0
390
0
  6
Continuous
 62
   174
100
AcDbText
 10
625.582571
 20
-350.960584
 30
0.0
 40
4.0
  1
20'
 50
90.0
  7
Vcadd_Handletter
100
AcDbText
  0
TEXT
  5
30B
100
AcDbEntity
  8
0
370
     0
390
0
  6
Continuous
 62
   174
100
AcDbText
 10
649.582571
 20
-350.960584
 30
0.0
 40
4.0
  1
22'
 50
90.0
  7
Vcadd_Handletter
100
AcDbText
  0
TEXT
  5
30C
100
AcDbEntity
  8
0
370
     0
390
0
  6
Continuous
 62
   174
100
AcDbText
 10
361.582571
 20
-350.960584
 30
0.0
 40
4.0
  1
2'
 50
270.0
 41
-1.0
  7
Vcadd_Handletter
100
AcDbText
  0
TEXT
  5
30D
100
AcDbEntity
  8
0
370
     0
390
0
  6
Continuous
 62
   174
100
AcDbText
 10
337.582571
 20
-350.960584
 30
0.0
 40
4.0
  1
4'
 50
270.0
 41
-1.0
  7
Vcadd_Handletter
100
AcDbText
  0
TEXT
  5
30E
100
AcDbEntity
  8
0
370
     0
390
0
  6
Continuous
 62
   174
100
AcDbText
 10
313.582571
 20
-350.960584
 30
0.0
 40
4.0
  1
6'
 50
270.0
 41
-1.0
  7
Vcadd_Handletter
100
AcDbText
  0
TEXT
  5
30F
100
AcDbEntity
  8
0
370
     0
390
0
  6
Continuous
 62
   174
100
AcDbText
 10
289.582571
 20
-350.960584
 30
0.0
 40
4.0
  1
8'
 50
270.0
 41
-1.0
  7
Vcadd_Handletter
100
AcDbText
  0
TEXT
  5
310
100
AcDbEntity
  8
0
370
     0
390
0
  6
Continuous
 62
   174
100
AcDbText
 10
265.582571
 20
-350.960584
 30
0.0
 40
4.0
  1
10'
 50
270.0
 41
-1.0
  7
Vcadd_Handletter
100
AcDbText
  0
TEXT
  5
311
100
AcDbEntity
  8
0
370
     0
390
0
  6
Continuous
 62
   174
100
AcDbText
 10
241.582571
 20
-350.960584
 30
0.0
 40
4.0
  1
12'
 50
270.0
 41
-1.0
  7
Vcadd_Handletter
100
AcDbText
  0
TEXT
  5
312
100
AcDbEntity
  8
0
370
     0
390
0
  6
Continuous
 62
   174
100
AcDbText
 10
217.582571
 20
-350.960584
 30
0.0
 40
4.0
  1
14'
 50
270.0
 41
-1.0
  7
Vcadd_Handletter
100
AcDbText
  0
TEXT
  5
313
100
AcDbEntity
  8
0
370
     0
390
0
  6
Continuous
 62
   174
100
AcDbText
 10
193.582571
 20
-350.960584
 30
0.0
 40
4.0
  1
16'
 50
270.0
 41
-1.0
  7
Vcadd_Handletter
100
AcDbText
  0
TEXT
  5
314
100
AcDbEntity
  8
0
370
     0
390
0
  6
Continuous
 62
   174
100
AcDbText
 10
169.582571
 20
-350.960584
 30
0.0
 40
4.0
  1
18'
 50
270.0
 41
-1.0
  7
Vcadd_Handletter
100
AcDbText
  0
TEXT
  5
315
100
AcDbEntity
  8
0
370
     0
390
0
  6
Continuous
 62
   174
100
AcDbText
 10
145.582571
 20
-350.960584
 30
0.0
 40
4.0
  1
20'
 50
270.0
 41
-1.0
  7
Vcadd_Handletter
100
AcDbText
  0
TEXT
  5
316
100
AcDbEntity
  8
0
370
     0
390
0
  6
Continuous
 62
   174
100
AcDbText
 10
121.582571
 20
-350.960584
 30
0.0
 40
4.0
  1
22'
 50
270.0
 41
-1.0
  7
Vcadd_Handletter
100
AcDbText
  0
TEXT
  5
317
100
AcDbEntity
  8
0
370
     0
390
0
  6
Continuous
 62
   174
100
AcDbText
 10
697.582571
 20
-350.960584
 30
0.0
 40
4.0
  1
26'
 50
90.0
  7
Vcadd_Handletter
100
AcDbText
  0
TEXT
  5
318
100
AcDbEntity
  8
0
370
     0
390
0
  6
Continuous
 62
   174
100
AcDbText
 10
673.582571
 20
-350.960584
 30
0.0
 40
4.0
  1
24'
 50
90.0
  7
Vcadd_Handletter
100
AcDbText
  0
TEXT
  5
319
100
AcDbEntity
  8
0
370
     0
390
0
  6
Continuous
 62
   174
100
AcDbText
 10
721.582571
 20
-350.960584
 30
0.0
 40
4.0
  1
28'
 50
90.0
  7
Vcadd_Handletter
100
AcDbText
  0
TEXT
  5
31A
100
AcDbEntity
  8
0
370
     0
390
0
  6
Continuous
 62
   174
100
AcDbText
 10
73.582571
 20
-350.960584
 30
0.0
 40
4.0
  1
26'
 50
270.0
 41
-1.0
  7
Vcadd_Handletter
100
AcDbText
  0
TEXT
  5
31B
100
AcDbEntity
  8
0
370
     0
390
0
  6
Continuous
 62
   174
100
AcDbText
 10
97.582571
 20
-350.960584
 30
0.0
 40
4.0
  1
24'
 50
270.0
 41
-1.0
  7
Vcadd_Handletter
100
AcDbText
  0
TEXT
  5
31C
100
AcDbEntity
  8
0
370
     0
390
0
  6
Continuous
 62
   174
100
AcDbText
 10
49.582571
 20
-350.960584
 30
0.0
 40
4.0
  1
28'
 50
270.0
 41
-1.0
  7
Vcadd_Handletter
100
AcDbText
  0
TEXT
  5
31D
100
AcDbEntity
  8
0
370
     0
390
0
  6
Continuous
 62
   174
100
AcDbText
 10
409.582571
 20
-350.960584
 30
0.0
 40
4.0
  1
2'
 50
90.0
  7
Vcadd_Handletter
100
AcDbText
  0
TEXT
  5
31E
100
AcDbEntity
  8
BORDER
370
     0
390
0
  6
Continuous
 62
   174
100
AcDbText
 10
573.761143
 20
-269.349732
 30
0.0
 40
2.5
  1
7
  7
Vcadd_Handletter
 72
     1
 11
574.582571
 21
-269.349732
 31
0.0
100
AcDbText
  0
TEXT
  5
31F
100
AcDbEntity
  8
BORDER
370
     0
390
0
  6
Continuous
 62
   174
100
AcDbText
 10
537.145071
 20
-269.349732
 30
0.0
 40
2.5
  1
17
  7
Vcadd_Handletter
 72
     1
 11
538.582571
 21
-269.349732
 31
0.0
100
AcDbText
  0
TEXT
  5
320
100
AcDbEntity
  8
BORDER
370
     0
390
0
  6
Continuous
 62
   174
100
AcDbText
 10
489.507916
 20
49.650268
 30
0.0
 40
2.5
  1
Cyc
  7
Vcadd_Handletter
 72
     1
 11
493.688988
 21
49.650268
 31
0.0
100
AcDbText
  0
TEXT
  5
321
100
AcDbEntity
  8
BORDER
370
     0
390
0
  6
Continuous
 62
   174
100
AcDbText
 10
489.622916
 20
45.900268
 30
0.0
 40
2.5
  1
R122
  7
Vcadd_Handletter
 72
     1
 11
493.688988
 21
45.900268
 31
0.0
100
AcDbText
  0
TEXT
  5
322
100
AcDbEntity
  8
BORDER
370
     0
390
0
  6
Continuous
 62
   174
100
AcDbText
 10
471.507916
 20
49.650268
 30
0.0
 40
2.5
  1
Cyc
  7
Vcadd_Handletter
 72
     1
 11
475.688988
 21
49.650268
 31
0.0
100
AcDbText
  0
TEXT
  5
323
100
AcDbEntity
  8
BORDER
370
     0
390
0
  6
Continuous
 62
   174
100
AcDbText
 10
471.130059
 20
45.900268
 30
0.0
 40
2.5
  1
R120
  7
Vcadd_Handletter
 72
     1
 11
475.688988
 21
45.900268
 31
0.0
100
AcDbText
  0
TEXT
  5
324
100
AcDbEntity
  8
BORDER
370
     0
390
0
  6
Continuous
 62
   174
100
AcDbText
 10
435.507916
 20
49.650268
 30
0.0
 40
2.5
  1
Cyc
  7
Vcadd_Handletter
 72
     1
 11
439.688988
 21
49.650268
 31
0.0
100
AcDbText
  0
TEXT
  5
325
100
AcDbEntity
  8
BORDER
370
     0
390
0
  6
Continuous
 62
   174
100
AcDbText
 10
435.622916
 20
45.900268
 30
0.0
 40
2.5
  1
R122
  7
Vcadd_Handletter
 72
     1
 11
439.688988
 21
45.900268
 31
0.0
100
AcDbText
  0
TEXT
  5
326
100
AcDbEntity
  8
BORDER
370
     0
390
0
  6
Continuous
 62
   174
100
AcDbText
 10
417.507916
 20
49.650268
 30
0.0
 40
2.5
  1
Cyc
  7
Vcadd_Handletter
 72
     1
 11
421.688988
 21
49.650268
 31
0.0
100
AcDbText
  0
TEXT
  5
327
100
AcDbEntity
  8
BORDER
370
     0
390
0
  6
Continuous
 62
   174
100
AcDbText
 10
417.130059
 20
45.900268
 30
0.0
 40
2.5
  1
R120
  7
Vcadd_Handletter
 72
     1
 11
421.688988
 21
45.900268
 31
0.0
100
AcDbText
  0
TEXT
  5
328
100
AcDbEntity
  8
BORDER
370
     0
390
0
  6
Continuous
 62
   174
100
AcDbText
 10
381.507916
 20
49.650268
 30
0.0
 40
2.5
  1
Cyc
  7
Vcadd_Handletter
 72
     1
 11
385.688988
 21
49.650268
 31
0.0
100
AcDbText
  0
TEXT
  5
329
100
AcDbEntity
  8
BORDER
370
     0
390
0
  6
Continuous
 62
   174
100
AcDbText
 10
381.622916
 20
45.900268
 30
0.0
 40
2.5
  1
R122
  7
Vcadd_Handletter
 72
     1
 11
385.688988
 21
45.900268
 31
0.0
100
AcDbText
  0
TEXT
  5
32A
100
AcDbEntity
  8
BORDER
370
     0
390
0
  6
Continuous
 62
   174
100
AcDbText
 10
363.507916
 20
49.650268
 30
0.0
 40
2.5
  1
Cyc
  7
Vcadd_Handletter
 72
     1
 11
367.688988
 21
49.650268
 31
0.0
100
AcDbText
  0
TEXT
  5
32B
100
AcDbEntity
  8
BORDER
370
     0
390
0
  6
Continuous
 62
   174
100
AcDbText
 10
363.130059
 20
45.900268
 30
0.0
 40
2.5
  1
R120
  7
Vcadd_Handletter
 72
     1
 11
367.688988
 21
45.900268
 31
0.0
100
AcDbText
  0
TEXT
  5
32C
100
AcDbEntity
  8
BORDER
370
     0
390
0
  6
Continuous
 62
   174
100
AcDbText
 10
327.507916
 20
49.650268
 30
0.0
 40
2.5
  1
Cyc
  7
Vcadd_Handletter
 72
     1
 11
331.688988
 21
49.650268
 31
0.0
100
AcDbText
  0
TEXT
  5
32D
100
AcDbEntity
  8
BORDER
370
     0
390
0
  6
Continuous
 62
   174
100
AcDbText
 10
327.622916
 20
45.900268
 30
0.0
 40
2.5
  1
R122
  7
Vcadd_Handletter
 72
     1
 11
331.688988
 21
45.900268
 31
0.0
100
AcDbText
  0
TEXT
  5
32E
100
AcDbEntity
  8
BORDER
370
     0
390
0
  6
Continuous
 62
   174
100
AcDbText
 10
309.507916
 20
49.650268
 30
0.0
 40
2.5
  1
Cyc
  7
Vcadd_Handletter
 72
     1
 11
313.688988
 21
49.650268
 31
0.0
100
AcDbText
  0
TEXT
  5
32F
100
AcDbEntity
  8
BORDER
370
     0
390
0
  6
Continuous
 62
   174
100
AcDbText
 10
309.130059
 20
45.900268
 30
0.0
 40
2.5
  1
R120
  7
Vcadd_Handletter
 72
     1
 11
313.688988
 21
45.900268
 31
0.0
100
AcDbText
  0
TEXT
  5
330
100
AcDbEntity
  8
BORDER
370
     0
390
0
  6
Continuous
 62
   174
100
AcDbText
 10
273.507916
 20
49.650268
 30
0.0
 40
2.5
  1
Cyc
  7
Vcadd_Handletter
 72
     1
 11
277.688988
 21
49.650268
 31
0.0
100
AcDbText
  0
TEXT
  5
331
100
AcDbEntity
  8
BORDER
370
     0
390
0
  6
Continuous
 62
   174
100
AcDbText
 10
273.622916
 20
45.900268
 30
0.0
 40
2.5
  1
R122
  7
Vcadd_Handletter
 72
     1
 11
277.688988
 21
45.900268
 31
0.0
100
AcDbText
  0
TEXT
  5
332
100
AcDbEntity
  8
BORDER
370
     0
390
0
  6
Continuous
 62
   174
100
AcDbText
 10
255.507916
 20
49.650268
 30
0.0
 40
2.5
  1
Cyc
  7
Vcadd_Handletter
 72
     1
 11
259.688988
 21
49.650268
 31
0.0
100
AcDbText
  0
TEXT
  5
333
100
AcDbEntity
  8
BORDER
370
     0
390
0
  6
Continuous
 62
   174
100
AcDbText
 10
255.130059
 20
45.900268
 30
0.0
 40
2.5
  1
R120
  7
Vcadd_Handletter
 72
     1
 11
259.688988
 21
45.900268
 31
0.0
100
AcDbText
  0
LINE
  5
334
100
AcDbEntity
  8
0
370
     0
390
0
  6
DOT
 62
   174
100
AcDbLine
 10
385.582571
 20
-55.349732
 30
0.0
 11
757.582571
 21
-55.349732
 31
0.0
  0
ARC
  5
335
100
AcDbEntity
  8
TITLE BLOCK
370
     0
390
0
  6
Continuous
 62
   174
100
AcDbCircle
 10
863.090728
 20
-775.700575
 30
0.0
 40
4.5
100
AcDbArc
 50
270.0
 51
360.0
  0
LINE
  5
336
100
AcDbEntity
  8
TITLE BLOCK
370
     0
390
0
  6
Continuous
 62
   174
100
AcDbLine
 10
863.090728
 20
-780.200575
 30
0.0
 11
857.090728
 21
-780.200575
 31
0.0
  0
ARC
  5
337
100
AcDbEntity
  8
TITLE BLOCK
370
     0
390
0
  6
Continuous
 62
   174
100
AcDbCircle
 10
857.090728
 20
-778.700575
 30
0.0
 40
6.0
100
AcDbArc
 50
270.0
 51
360.0
  0
LINE
  5
338
100
AcDbEntity
  8
TITLE BLOCK
370
     0
390
0
  6
Continuous
 62
   174
100
AcDbLine
 10
863.090728
 20
-775.700575
 30
0.0
 11
863.090728
 21
-778.700575
 31
0.0
  0
ARC
  5
339
100
AcDbEntity
  8
TITLE BLOCK
370
    30
390
0
  6
Continuous
 62
    14
100
AcDbCircle
 10
863.090728
 20
-775.700575
 30
0.0
 40
6.0
100
AcDbArc
 50
270.0
 51
360.0
  0
LINE
  5
33A
100
AcDbEntity
  8
TITLE BLOCK
370
    30
390
0
  6
Continuous
 62
    14
100
AcDbLine
 10
863.090728
 20
-781.700575
 30
0.0
 11
857.090728
 21
-781.700575
 31
0.0
  0
ARC
  5
33B
100
AcDbEntity
  8
TITLE BLOCK
370
    30
390
0
  6
Continuous
 62
    14
100
AcDbCircle
 10
857.090728
 20
-778.700575
 30
0.0
 40
7.5
100
AcDbArc
 50
270.0
 51
360.0
  0
LINE
  5
33C
100
AcDbEntity
  8
TITLE BLOCK
370
    30
390
0
  6
Continuous
 62
    14
100
AcDbLine
 10
864.590728
 20
-775.700575
 30
0.0
 11
864.590728
 21
-778.700575
 31
0.0
  0
ARC
  5
33D
100
AcDbEntity
  8
TITLE BLOCK
370
     0
390
0
  6
Continuous
 62
   174
100
AcDbCircle
 10
863.090728
 20
-643.829495
 30
0.0
 40
4.5
100
AcDbArc
 50
0.0
 51
90.0
  0
LINE
  5
33E
100
AcDbEntity
  8
TITLE BLOCK
370
     0
390
0
  6
Continuous
 62
   174
100
AcDbLine
 10
863.090728
 20
-639.329495
 30
0.0
 11
857.090728
 21
-639.329495
 31
0.0
  0
ARC
  5
33F
100
AcDbEntity
  8
TITLE BLOCK
370
     0
390
0
  6
Continuous
 62
   174
100
AcDbCircle
 10
857.090728
 20
-640.829495
 30
0.0
 40
6.0
100
AcDbArc
 50
0.0
 51
90.0
  0
LINE
  5
340
100
AcDbEntity
  8
TITLE BLOCK
370
     0
390
0
  6
Continuous
 62
   174
100
AcDbLine
 10
863.090728
 20
-643.829495
 30
0.0
 11
863.090728
 21
-640.829495
 31
0.0
  0
ARC
  5
341
100
AcDbEntity
  8
TITLE BLOCK
370
    30
390
0
  6
Continuous
 62
    14
100
AcDbCircle
 10
863.090728
 20
-643.829495
 30
0.0
 40
6.0
100
AcDbArc
 50
0.0
 51
90.0
  0
LINE
  5
342
100
AcDbEntity
  8
TITLE BLOCK
370
    30
390
0
  6
Continuous
 62
    14
100
AcDbLine
 10
863.090728
 20
-637.829495
 30
0.0
 11
857.090728
 21
-637.829495
 31
0.0
  0
ARC
  5
343
100
AcDbEntity
  8
TITLE BLOCK
370
    30
390
0
  6
Continuous
 62
    14
100
AcDbCircle
 10
857.090728
 20
-640.829495
 30
0.0
 40
7.5
100
AcDbArc
 50
360.0
 51
450.0
  0
LINE
  5
344
100
AcDbEntity
  8
TITLE BLOCK
370
    30
390
0
  6
Continuous
 62
    14
100
AcDbLine
 10
864.590728
 20
-643.829495
 30
0.0
 11
864.590728
 21
-640.829495
 31
0.0
  0
ARC
  5
345
100
AcDbEntity
  8
TITLE BLOCK
370
     0
390
0
  6
Continuous
 62
   174
100
AcDbCircle
 10
611.090728
 20
-775.700575
 30
0.0
 40
4.5
100
AcDbArc
 50
180.0
 51
270.0
  0
LINE
  5
346
100
AcDbEntity
  8
TITLE BLOCK
370
     0
390
0
  6
Continuous
 62
   174
100
AcDbLine
 10
611.090728
 20
-780.200575
 30
0.0
 11
617.090728
 21
-780.200575
 31
0.0
  0
ARC
  5
347
100
AcDbEntity
  8
TITLE BLOCK
370
     0
390
0
  6
Continuous
 62
   174
100
AcDbCircle
 10
617.090728
 20
-778.700575
 30
0.0
 40
6.0
100
AcDbArc
 50
180.0
 51
270.0
  0
LINE
  5
348
100
AcDbEntity
  8
TITLE BLOCK
370
     0
390
0
  6
Continuous
 62
   174
100
AcDbLine
 10
611.090728
 20
-775.700575
 30
0.0
 11
611.090728
 21
-778.700575
 31
0.0
  0
ARC
  5
349
100
AcDbEntity
  8
TITLE BLOCK
370
    30
390
0
  6
Continuous
 62
    14
100
AcDbCircle
 10
611.090728
 20
-775.700575
 30
0.0
 40
6.0
100
AcDbArc
 50
180.0
 51
270.0
  0
LINE
  5
34A
100
AcDbEntity
  8
TITLE BLOCK
370
    30
390
0
  6
Continuous
 62
    14
100
AcDbLine
 10
611.090728
 20
-781.700575
 30
0.0
 11
617.090728
 21
-781.700575
 31
0.0
  0
ARC
  5
34B
100
AcDbEntity
  8
TITLE BLOCK
370
    30
390
0
  6
Continuous
 62
    14
100
AcDbCircle
 10
617.090728
 20
-778.700575
 30
0.0
 40
7.5
100
AcDbArc
 50
180.0
 51
270.0
  0
LINE
  5
34C
100
AcDbEntity
  8
TITLE BLOCK
370
    30
390
0
  6
Continuous
 62
    14
100
AcDbLine
 10
609.590728
 20
-775.700575
 30
0.0
 11
609.590728
 21
-778.700575
 31
0.0
  0
ARC
  5
34D
100
AcDbEntity
  8
TITLE BLOCK
370
     0
390
0
  6
Continuous
 62
   174
100
AcDbCircle
 10
611.090728
 20
-643.829495
 30
0.0
 40
4.5
100
AcDbArc
 50
90.0
 51
180.0
  0
LINE
  5
34E
100
AcDbEntity
  8
TITLE BLOCK
370
     0
390
0
  6
Continuous
 62
   174
100
AcDbLine
 10
611.090728
 20
-639.329495
 30
0.0
 11
617.090728
 21
-639.329495
 31
0.0
  0
ARC
  5
34F
100
AcDbEntity
  8
TITLE BLOCK
370
     0
390
0
  6
Continuous
 62
   174
100
AcDbCircle
 10
617.090728
 20
-640.829495
 30
0.0
 40
6.0
100
AcDbArc
 50
90.0
 51
180.0
  0
LINE
  5
350
100
AcDbEntity
  8
TITLE BLOCK
370
     0
390
0
  6
Continuous
 62
   174
100
AcDbLine
 10
611.090728
 20
-643.829495
 30
0.0
 11
611.090728
 21
-640.829495
 31
0.0
  0
ARC
  5
351
100
AcDbEntity
  8
TITLE BLOCK
370
    30
390
0
  6
Continuous
 62
    14
100
AcDbCircle
 10
611.090728
 20
-643.829495
 30
0.0
 40
6.0
100
AcDbArc
 50
90.0
 51
180.0
  0
LINE
  5
352
100
AcDbEntity
  8
TITLE BLOCK
370
    30
390
0
  6
Continuous
 62
    14
100
AcDbLine
 10
611.090728
 20
-637.829495
 30
0.0
 11
617.090728
 21
-637.829495
 31
0.0
  0
ARC
  5
353
100
AcDbEntity
  8
TITLE BLOCK
370
    30
390
0
  6
Continuous
 62
    14
100
AcDbCircle
 10
617.090728
 20
-640.829495
 30
0.0
 40
7.5
100
AcDbArc
 50
90.0
 51
180.0
  0
LINE
  5
354
100
AcDbEntity
  8
TITLE BLOCK
370
    30
390
0
  6
Continuous
 62
    14
100
AcDbLine
 10
609.590728
 20
-643.829495
 30
0.0
 11
609.590728
 21
-640.829495
 31
0.0
  0
LINE
  5
355
100
AcDbEntity
  8
TITLE BLOCK
370
    30
390
0
  6
Continuous
 62
    14
100
AcDbLine
 10
609.590728
 20
-775.700575
 30
0.0
 11
609.590728
 21
-643.829495
 31
0.0
  0
LINE
  5
356
100
AcDbEntity
  8
TITLE BLOCK
370
     0
390
0
  6
Continuous
 62
   174
100
AcDbLine
 10
606.590728
 20
-775.700575
 30
0.0
 11
606.590728
 21
-643.829495
 31
0.0
  0
LINE
  5
357
100
AcDbEntity
  8
TITLE BLOCK
370
    30
390
0
  6
Continuous
 62
    14
100
AcDbLine
 10
605.090728
 20
-775.700575
 30
0.0
 11
605.090728
 21
-643.829495
 31
0.0
  0
LINE
  5
358
100
AcDbEntity
  8
TITLE BLOCK
370
    30
390
0
  6
Continuous
 62
    14
100
AcDbLine
 10
857.090728
 20
-633.329495
 30
0.0
 11
617.090728
 21
-633.329495
 31
0.0
  0
LINE
  5
359
100
AcDbEntity
  8
TITLE BLOCK
370
     0
390
0
  6
Continuous
 62
   174
100
AcDbLine
 10
857.090728
 20
-634.829495
 30
0.0
 11
617.090728
 21
-634.829495
 31
0.0
  0
LINE
  5
35A
100
AcDbEntity
  8
TITLE BLOCK
370
    30
390
0
  6
Continuous
 62
    14
100
AcDbLine
 10
857.090728
 20
-637.829495
 30
0.0
 11
617.090728
 21
-637.829495
 31
0.0
  0
LINE
  5
35B
100
AcDbEntity
  8
TITLE BLOCK
370
     0
390
0
  6
Continuous
 62
   174
100
AcDbLine
 10
857.090728
 20
-639.329495
 30
0.0
 11
617.090728
 21
-639.329495
 31
0.0
  0
LINE
  5
35C
100
AcDbEntity
  8
TITLE BLOCK
370
    30
390
0
  6
Continuous
 62
    14
100
AcDbLine
 10
869.090728
 20
-775.700575
 30
0.0
 11
869.090728
 21
-643.829495
 31
0.0
  0
LINE
  5
35D
100
AcDbEntity
  8
TITLE BLOCK
370
     0
390
0
  6
Continuous
 62
   174
100
AcDbLine
 10
867.590728
 20
-775.700575
 30
0.0
 11
867.590728
 21
-643.829495
 31
0.0
  0
LINE
  5
35E
100
AcDbEntity
  8
TITLE BLOCK
370
    30
390
0
  6
Continuous
 62
    14
100
AcDbLine
 10
864.590728
 20
-775.700575
 30
0.0
 11
864.590728
 21
-643.829495
 31
0.0
  0
LINE
  5
35F
100
AcDbEntity
  8
TITLE BLOCK
370
     0
390
0
  6
Continuous
 62
   174
100
AcDbLine
 10
863.090728
 20
-775.700575
 30
0.0
 11
863.090728
 21
-643.829495
 31
0.0
  0
LINE
  5
360
100
AcDbEntity
  8
TITLE BLOCK
370
     0
390
0
  6
Continuous
 62
   174
100
AcDbLine
 10
611.090728
 20
-643.829495
 30
0.0
 11
611.090728
 21
-778.700575
 31
0.0
  0
LINE
  5
361
100
AcDbEntity
  8
TITLE BLOCK
370
     0
390
0
  6
Continuous
 62
   174
100
AcDbLine
 10
857.090728
 20
-780.200575
 30
0.0
 11
617.090728
 21
-780.200575
 31
0.0
  0
LINE
  5
362
100
AcDbEntity
  8
TITLE BLOCK
370
    30
390
0
  6
Continuous
 62
    14
100
AcDbLine
 10
857.090728
 20
-781.700575
 30
0.0
 11
617.090728
 21
-781.700575
 31
0.0
  0
LINE
  5
363
100
AcDbEntity
  8
TITLE BLOCK
370
     0
390
0
  6
Continuous
 62
   174
100
AcDbLine
 10
857.090728
 20
-784.700575
 30
0.0
 11
617.090728
 21
-784.700575
 31
0.0
  0
LINE
  5
364
100
AcDbEntity
  8
TITLE BLOCK
370
    30
390
0
  6
Continuous
 62
    14
100
AcDbLine
 10
857.090728
 20
-786.200575
 30
0.0
 11
617.090728
 21
-786.200575
 31
0.0
  0
TEXT
  5
365
100
AcDbEntity
  8
TITLE BLOCK
370
     0
390
0
  6
Continuous
 62
   174
100
AcDbText
 10
770.747643
 20
-651.265035
 30
0.0
 40
5.0
  1
Onstage Electrics
  7
Vcadd_Handletter
 72
     2
 11
860.082637
 21
-651.265035
 31
0.0
100
AcDbText
  0
ARC
  5
366
100
AcDbEntity
  8
BORDER
370
     0
390
0
  6
Continuous
 62
   174
100
AcDbCircle
 10
888.590728
 20
-793.700575
 30
0.0
 40
4.5
100
AcDbArc
 50
270.0
 51
360.0
  0
LINE
  5
367
100
AcDbEntity
  8
BORDER
370
     0
390
0
  6
Continuous
 62
   174
100
AcDbLine
 10
888.590728
 20
-798.200575
 30
0.0
 11
882.590728
 21
-798.200575
 31
0.0
  0
ARC
  5
368
100
AcDbEntity
  8
BORDER
370
     0
390
0
  6
Continuous
 62
   174
100
AcDbCircle
 10
882.590728
 20
-796.700575
 30
0.0
 40
6.0
100
AcDbArc
 50
270.0
 51
360.0
  0
LINE
  5
369
100
AcDbEntity
  8
BORDER
370
     0
390
0
  6
Continuous
 62
   174
100
AcDbLine
 10
888.590728
 20
-793.700575
 30
0.0
 11
888.590728
 21
-796.700575
 31
0.0
  0
ARC
  5
36A
100
AcDbEntity
  8
BORDER
370
    30
390
0
  6
Continuous
 62
    14
100
AcDbCircle
 10
888.590728
 20
-793.700575
 30
0.0
 40
6.0
100
AcDbArc
 50
270.0
 51
360.0
  0
LINE
  5
36B
100
AcDbEntity
  8
BORDER
370
    30
390
0
  6
Continuous
 62
    14
100
AcDbLine
 10
888.590728
 20
-799.700575
 30
0.0
 11
882.590728
 21
-799.700575
 31
0.0
  0
ARC
  5
36C
100
AcDbEntity
  8
BORDER
370
    30
390
0
  6
Continuous
 62
    14
100
AcDbCircle
 10
882.590728
 20
-796.700575
 30
0.0
 40
7.5
100
AcDbArc
 50
270.0
 51
360.0
  0
LINE
  5
36D
100
AcDbEntity
  8
BORDER
370
    30
390
0
  6
Continuous
 62
    14
100
AcDbLine
 10
890.090728
 20
-793.700575
 30
0.0
 11
890.090728
 21
-796.700575
 31
0.0
  0
ARC
  5
36E
100
AcDbEntity
  8
BORDER
370
     0
390
0
  6
Continuous
 62
   174
100
AcDbCircle
 10
888.582371
 20
221.671755
 30
0.0
 40
4.5
100
AcDbArc
 50
0.0
 51
90.0
  0
LINE
  5
36F
100
AcDbEntity
  8
BORDER
370
     0
390
0
  6
Continuous
 62
   174
100
AcDbLine
 10
888.582371
 20
226.171755
 30
0.0
 11
882.582371
 21
226.171755
 31
0.0
  0
ARC
  5
370
100
AcDbEntity
  8
BORDER
370
     0
390
0
  6
Continuous
 62
   174
100
AcDbCircle
 10
882.582371
 20
224.671755
 30
0.0
 40
6.0
100
AcDbArc
 50
360.0
 51
450.0
  0
LINE
  5
371
100
AcDbEntity
  8
BORDER
370
     0
390
0
  6
Continuous
 62
   174
100
AcDbLine
 10
888.582371
 20
221.671755
 30
0.0
 11
888.582371
 21
224.671755
 31
0.0
  0
ARC
  5
372
100
AcDbEntity
  8
BORDER
370
    30
390
0
  6
Continuous
 62
    14
100
AcDbCircle
 10
888.582371
 20
221.671755
 30
0.0
 40
6.0
100
AcDbArc
 50
360.0
 51
450.0
  0
LINE
  5
373
100
AcDbEntity
  8
BORDER
370
    30
390
0
  6
Continuous
 62
    14
100
AcDbLine
 10
888.582371
 20
227.671755
 30
0.0
 11
882.582371
 21
227.671755
 31
0.0
  0
ARC
  5
374
100
AcDbEntity
  8
BORDER
370
    30
390
0
  6
Continuous
 62
    14
100
AcDbCircle
 10
882.582371
 20
224.671755
 30
0.0
 40
7.5
100
AcDbArc
 50
0.0
 51
90.0
  0
LINE
  5
375
100
AcDbEntity
  8
BORDER
370
    30
390
0
  6
Continuous
 62
    14
100
AcDbLine
 10
890.082371
 20
221.671755
 30
0.0
 11
890.082371
 21
224.671755
 31
0.0
  0
LINE
  5
376
100
AcDbEntity
  8
BORDER
370
     0
390
0
  6
Continuous
 62
   174
100
AcDbLine
 10
893.082371
 20
221.671755
 30
0.0
 11
893.090728
 21
-793.700575
 31
0.0
  0
LINE
  5
377
100
AcDbEntity
  8
BORDER
370
    30
390
0
  6
Continuous
 62
    14
100
AcDbLine
 10
894.582371
 20
221.671755
 30
0.0
 11
894.590728
 21
-793.700575
 31
0.0
  0
LINE
  5
378
100
AcDbEntity
  8
BORDER
370
    30
390
0
  6
Continuous
 62
    14
100
AcDbLine
 10
890.082371
 20
221.671755
 30
0.0
 11
890.090728
 21
-793.700575
 31
0.0
  0
LINE
  5
379
100
AcDbEntity
  8
BORDER
370
     0
390
0
  6
Continuous
 62
   174
100
AcDbLine
 10
888.582371
 20
221.671755
 30
0.0
 11
888.590728
 21
-796.700575
 31
0.0
  0
LINE
  5
37A
100
AcDbEntity
  8
BORDER
370
     0
390
0
  6
Continuous
 62
   174
100
AcDbLine
 10
882.582371
 20
238.171755
 30
0.0
 11
900.582371
 21
238.171755
 31
0.0
  0
LINE
  5
37B
100
AcDbEntity
  8
BORDER
370
     0
390
0
  6
DOT
 62
    14
100
AcDbLine
 10
900.582371
 20
221.671755
 30
0.0
 11
900.590728
 21
-793.700575
 31
0.0
  0
LINE
  5
37C
100
AcDbEntity
  8
BORDER
370
     0
390
0
  6
Continuous
 62
   174
100
AcDbLine
 10
900.582371
 20
221.671755
 30
0.0
 11
900.582371
 21
238.171755
 31
0.0
  0
LINE
  5
37D
100
AcDbEntity
  8
BORDER
370
     0
390
0
  6
Continuous
 62
   174
100
AcDbLine
 10
882.590728
 20
-810.200575
 30
0.0
 11
900.590728
 21
-810.200575
 31
0.0
  0
LINE
  5
37E
100
AcDbEntity
  8
BORDER
370
     0
390
0
  6
Continuous
 62
   174
100
AcDbLine
 10
900.590728
 20
-793.700575
 30
0.0
 11
900.590728
 21
-810.200575
 31
0.0
  0
LINE
  5
37F
100
AcDbEntity
  8
BORDER
370
     0
390
0
  6
DOT
 62
    14
100
AcDbLine
 10
-497.417629
 20
238.171755
 30
0.0
 11
882.582371
 21
238.171755
 31
0.0
  0
LINE
  5
380
100
AcDbEntity
  8
BORDER
370
    30
390
0
  6
Continuous
 62
    14
100
AcDbLine
 10
-497.417629
 20
232.171755
 30
0.0
 11
882.582371
 21
232.171755
 31
0.0
  0
LINE
  5
381
100
AcDbEntity
  8
BORDER
370
     0
390
0
  6
Continuous
 62
   174
100
AcDbLine
 10
-497.417629
 20
230.671755
 30
0.0
 11
882.582371
 21
230.671755
 31
0.0
  0
LINE
  5
382
100
AcDbEntity
  8
BORDER
370
    30
390
0
  6
Continuous
 62
    14
100
AcDbLine
 10
-497.417629
 20
227.671755
 30
0.0
 11
888.582371
 21
227.671755
 31
0.0
  0
LINE
  5
383
100
AcDbEntity
  8
BORDER
370
     0
390
0
  6
Continuous
 62
   174
100
AcDbLine
 10
-497.417629
 20
226.171755
 30
0.0
 11
888.582371
 21
226.171755
 31
0.0
  0
LINE
  5
384
100
AcDbEntity
  8
BORDER
370
     0
390
0
  6
DOT
 62
    14
100
AcDbLine
 10
-497.409272
 20
-810.200575
 30
0.0
 11
882.590728
 21
-810.200575
 31
0.0
  0
LINE
  5
385
100
AcDbEntity
  8
BORDER
370
    30
390
0
  6
Continuous
 62
    14
100
AcDbLine
 10
-497.409272
 20
-804.200575
 30
0.0
 11
882.590728
 21
-804.200575
 31
0.0
  0
LINE
  5
386
100
AcDbEntity
  8
BORDER
370
     0
390
0
  6
Continuous
 62
   174
100
AcDbLine
 10
-497.409272
 20
-802.700575
 30
0.0
 11
882.590728
 21
-802.700575
 31
0.0
  0
LINE
  5
387
100
AcDbEntity
  8
BORDER
370
    30
390
0
  6
Continuous
 62
    14
100
AcDbLine
 10
-497.409272
 20
-799.700575
 30
0.0
 11
888.590728
 21
-799.700575
 31
0.0
  0
LINE
  5
388
100
AcDbEntity
  8
BORDER
370
     0
390
0
  6
Continuous
 62
   174
100
AcDbLine
 10
-497.409272
 20
-798.200575
 30
0.0
 11
888.590728
 21
-798.200575
 31
0.0
  0
LINE
  5
389
100
AcDbEntity
  8
POS-HIDDEN
370
    15
390
0
  6
DOT
 62
     7
100
AcDbLine
 10
385.582571
 20
-113.349732
 30
0.0
 11
604.631194
 21
-113.349732
 31
0.0
  0
LINE
  5
38A
100
AcDbEntity
  8
POS-HIDDEN
370
    15
390
0
  6
DOT
 62
     7
100
AcDbLine
 10
385.582571
 20
-114.349732
 30
0.0
 11
604.631194
 21
-114.349732
 31
0.0
  0
LINE
  5
38B
100
AcDbEntity
  8
POS-HIDDEN
370
    15
390
0
  6
DOT
 62
     7
100
AcDbLine
 10
385.582571
 20
-115.349732
 30
0.0
 11
604.631194
 21
-115.349732
 31
0.0
  0
LINE
  5
38C
100
AcDbEntity
  8
0
370
     0
390
0
  6
CENTER
 62
     1
100
AcDbLine
 10
385.582571
 20
-241.349732
 30
0.0
 11
385.447824
 21
-514.349732
 31
0.0
  0
LINE
  5
38D
100
AcDbEntity
  8
0
370
     0
390
0
  6
CENTER
 62
     1
100
AcDbLine
 10
385.582571
 20
-225.599732
 30
0.0
 11
385.582571
 21
43.079641
 31
0.0
  0
LINE
  5
38E
100
AcDbEntity
  8
0
370
     0
390
0
  6
DOT
 62
   174
100
AcDbLine
 10
385.582571
 20
-55.349732
 30
0.0
 11
13.582571
 21
-55.349732
 31
0.0
  0
LINE
  5
38F
100
AcDbEntity
  8
0
370
     0
390
0
  6
DOT
 62
   174
100
AcDbLine
 10
385.582571
 20
-78.349732
 30
0.0
 11
317.038189
 21
-78.349732
 31
0.0
  0
LINE
  5
390
100
AcDbEntity
  8
0
370
     0
390
0
  6
DOT
 62
   174
100
AcDbLine
 10
13.582571
 20
-78.349732
 30
0.0
 11
205.832571
 21
-78.349732
 31
0.0
  0
LINE
  5
391
100
AcDbEntity
  8
0
370
     0
390
0
  6
DOT
 62
   174
100
AcDbLine
 10
313.582571
 20
-78.349732
 30
0.0
 11
208.843446
 21
-78.349732
 31
0.0
  0
LINE
  5
392
100
AcDbEntity
  8
0
370
     0
390
0
  6
DOT
 62
   174
100
AcDbLine
 10
385.582571
 20
-78.349732
 30
0.0
 11
454.329393
 21
-78.349732
 31
0.0
  0
LINE
  5
393
100
AcDbEntity
  8
0
370
     0
390
0
  6
DOT
 62
   174
100
AcDbLine
 10
757.582571
 20
-78.349732
 30
0.0
 11
568.282612
 21
-78.349732
 31
0.0
  0
LINE
  5
394
100
AcDbEntity
  8
0
370
     0
390
0
  6
DOT
 62
   174
100
AcDbLine
 10
457.582571
 20
-78.349732
 30
0.0
 11
565.298847
 21
-78.423242
 31
0.0
  0
LINE
  5
395
100
AcDbEntity
  8
0
370
     0
390
0
  6
Continuous
 62
   174
100
AcDbLine
 10
-79.417429
 20
-298.349732
 30
0.0
 11
-115.417429
 21
-298.349732
 31
0.0
  0
LINE
  5
396
100
AcDbEntity
  8
POS-HIDDEN
370
     0
390
0
  6
DOT
 62
     7
100
AcDbLine
 10
166.832571
 20
-113.349732
 30
0.0
 11
380.332571
 21
-113.349732
 31
0.0
  0
LINE
  5
397
100
AcDbEntity
  8
POS-HIDDEN
370
     0
390
0
  6
DOT
 62
     7
100
AcDbLine
 10
166.832571
 20
-114.349732
 30
0.0
 11
380.332571
 21
-114.349732
 31
0.0
  0
LINE
  5
398
100
AcDbEntity
  8
POS-HIDDEN
370
     0
390
0
  6
DOT
 62
     7
100
AcDbLine
 10
166.832571
 20
-115.349732
 30
0.0
 11
380.332571
 21
-115.349732
 31
0.0
  0
LINE
  5
399
100
AcDbEntity
  8
0
370
     0
390
0
  6
CENTER
 62
     1
100
AcDbLine
 10
385.582371
 20
102.973063
 30
0.0
 11
385.582371
 21
151.451135
 31
0.0
  0
LINE
  5
39A
100
AcDbEntity
  8
BORDER
370
     0
390
0
  6
DOT
 62
    14
100
AcDbLine
 10
-587.417629
 20
221.671755
 30
0.0
 11
-587.417363
 21
-793.743548
 31
0.0
  0
LINE
  5
39B
100
AcDbEntity
  8
BORDER
370
     0
390
0
  6
Continuous
 62
   174
100
AcDbLine
 10
-587.417629
 20
221.671755
 30
0.0
 11
-587.417629
 21
238.171755
 31
0.0
  0
LINE
  5
39C
100
AcDbEntity
  8
BORDER
370
     0
390
0
  6
Continuous
 62
   174
100
AcDbLine
 10
-587.417363
 20
-793.743548
 30
0.0
 11
-587.417363
 21
-810.200575
 31
0.0
  0
LINE
  5
39D
100
AcDbEntity
  8
BORDER
370
     0
390
0
  6
Continuous
 62
   174
100
AcDbLine
 10
-497.417629
 20
238.171755
 30
0.0
 11
-587.417629
 21
238.171755
 31
0.0
  0
LINE
  5
39E
100
AcDbEntity
  8
BORDER
370
     0
390
0
  6
Continuous
 62
   174
100
AcDbLine
 10
-497.409272
 20
-810.200575
 30
0.0
 11
-587.417363
 21
-810.200575
 31
0.0
  0
TEXT
  5
39F
100
AcDbEntity
  8
BORDER
370
     0
390
0
  6
Continuous
 62
   174
100
AcDbText
 10
-747.472054
 20
-286.012982
 30
0.0
 40
12.0
  1
Please trim prints to dotted lines.
 50
90.0
  7
Vcadd_Handletter
 72
     1
 11
-560.442622
 21
-286.012982
 31
0.0
100
AcDbText
  0
LINE
  5
3A0
100
AcDbEntity
  8
0
370
     0
390
0
  6
Continuous
 62
     7
100
AcDbLine
 10
-79.417429
 20
-190.349732
 30
0.0
 11
-91.417429
 21
-190.349732
 31
0.0
  0
LINE
  5
3A1
100
AcDbEntity
  8
0
370
     0
390
0
  6
Continuous
 62
     7
100
AcDbLine
 10
-79.417429
 20
-202.349732
 30
0.0
 11
-85.417429
 21
-202.349732
 31
0.0
  0
LINE
  5
3A2
100
AcDbEntity
  8
0
370
     0
390
0
  6
Continuous
 62
     7
100
AcDbLine
 10
-79.417429
 20
-214.349732
 30
0.0
 11
-91.417429
 21
-214.349732
 31
0.0
  0
LINE
  5
3A3
100
AcDbEntity
  8
0
370
     0
390
0
  6
Continuous
 62
     7
100
AcDbLine
 10
-79.417429
 20
-226.349732
 30
0.0
 11
-85.417429
 21
-226.349732
 31
0.0
  0
LINE
  5
3A4
100
AcDbEntity
  8
0
370
     0
390
0
  6
Continuous
 62
     7
100
AcDbLine
 10
-79.417429
 20
-238.349732
 30
0.0
 11
-91.417429
 21
-238.349732
 31
0.0
  0
LINE
  5
3A5
100
AcDbEntity
  8
0
370
     0
390
0
  6
Continuous
 62
     7
100
AcDbLine
 10
-79.417429
 20
-250.349732
 30
0.0
 11
-85.417429
 21
-250.349732
 31
0.0
  0
LINE
  5
3A6
100
AcDbEntity
  8
0
370
     0
390
0
  6
Continuous
 62
     7
100
AcDbLine
 10
-79.417429
 20
-262.349732
 30
0.0
 11
-91.417429
 21
-262.349732
 31
0.0
  0
LINE
  5
3A7
100
AcDbEntity
  8
0
370
     0
390
0
  6
Continuous
 62
     7
100
AcDbLine
 10
-79.417429
 20
-274.349732
 30
0.0
 11
-85.417429
 21
-274.349732
 31
0.0
  0
LINE
  5
3A8
100
AcDbEntity
  8
0
370
     0
390
0
  6
Continuous
 62
     7
100
AcDbLine
 10
-79.417429
 20
-94.349732
 30
0.0
 11
-91.417429
 21
-94.349732
 31
0.0
  0
LINE
  5
3A9
100
AcDbEntity
  8
0
370
     0
390
0
  6
Continuous
 62
     7
100
AcDbLine
 10
-79.417429
 20
-106.349732
 30
0.0
 11
-85.417429
 21
-106.349732
 31
0.0
  0
LINE
  5
3AA
100
AcDbEntity
  8
0
370
     0
390
0
  6
Continuous
 62
     7
100
AcDbLine
 10
-79.417429
 20
-118.349732
 30
0.0
 11
-91.417429
 21
-118.349732
 31
0.0
  0
LINE
  5
3AB
100
AcDbEntity
  8
0
370
     0
390
0
  6
Continuous
 62
     7
100
AcDbLine
 10
-79.417429
 20
-130.349732
 30
0.0
 11
-85.417429
 21
-130.349732
 31
0.0
  0
LINE
  5
3AC
100
AcDbEntity
  8
0
370
     0
390
0
  6
Continuous
 62
     7
100
AcDbLine
 10
-79.417429
 20
-142.349732
 30
0.0
 11
-91.417429
 21
-142.349732
 31
0.0
  0
LINE
  5
3AD
100
AcDbEntity
  8
0
370
     0
390
0
  6
Continuous
 62
     7
100
AcDbLine
 10
-79.417429
 20
-154.349732
 30
0.0
 11
-85.417429
 21
-154.349732
 31
0.0
  0
LINE
  5
3AE
100
AcDbEntity
  8
0
370
     0
390
0
  6
Continuous
 62
     7
100
AcDbLine
 10
-79.417429
 20
-166.349732
 30
0.0
 11
-91.417429
 21
-166.349732
 31
0.0
  0
LINE
  5
3AF
100
AcDbEntity
  8
0
370
     0
390
0
  6
Continuous
 62
     7
100
AcDbLine
 10
-79.417429
 20
-178.349732
 30
0.0
 11
-85.417429
 21
-178.349732
 31
0.0
  0
LINE
  5
3B0
100
AcDbEntity
  8
0
370
     0
390
0
  6
Continuous
 62
     7
100
AcDbLine
 10
-79.417429
 20
-46.349732
 30
0.0
 11
-91.417429
 21
-46.349732
 31
0.0
  0
LINE
  5
3B1
100
AcDbEntity
  8
0
370
     0
390
0
  6
Continuous
 62
     7
100
AcDbLine
 10
-79.417429
 20
-58.349732
 30
0.0
 11
-85.417429
 21
-58.349732
 31
0.0
  0
LINE
  5
3B2
100
AcDbEntity
  8
0
370
     0
390
0
  6
Continuous
 62
     7
100
AcDbLine
 10
-79.417429
 20
-70.349732
 30
0.0
 11
-91.417429
 21
-70.349732
 31
0.0
  0
LINE
  5
3B3
100
AcDbEntity
  8
0
370
     0
390
0
  6
Continuous
 62
     7
100
AcDbLine
 10
-79.417429
 20
-82.349732
 30
0.0
 11
-85.417429
 21
-82.349732
 31
0.0
  0
LINE
  5
3B4
100
AcDbEntity
  8
0
370
     0
390
0
  6
Continuous
 62
     7
100
AcDbLine
 10
-79.417429
 20
-22.349732
 30
0.0
 11
-91.417429
 21
-22.349732
 31
0.0
  0
LINE
  5
3B5
100
AcDbEntity
  8
0
370
     0
390
0
  6
Continuous
 62
     7
100
AcDbLine
 10
-79.417429
 20
-34.349732
 30
0.0
 11
-85.417429
 21
-34.349732
 31
0.0
  0
LINE
  5
3B6
100
AcDbEntity
  8
0
370
     0
390
0
  6
Continuous
 62
     7
100
AcDbLine
 10
-79.417429
 20
1.650268
 30
0.0
 11
-91.417429
 21
1.650268
 31
0.0
  0
LINE
  5
3B7
100
AcDbEntity
  8
0
370
     0
390
0
  6
Continuous
 62
     7
100
AcDbLine
 10
-79.417429
 20
-10.349732
 30
0.0
 11
-85.417429
 21
-10.349732
 31
0.0
  0
LINE
  5
3B8
100
AcDbEntity
  8
0
370
     0
390
0
  6
Continuous
 62
     7
100
AcDbLine
 10
-79.417429
 20
25.650268
 30
0.0
 11
-91.417429
 21
25.650268
 31
0.0
  0
LINE
  5
3B9
100
AcDbEntity
  8
0
370
     0
390
0
  6
Continuous
 62
     7
100
AcDbLine
 10
-79.417429
 20
13.650268
 30
0.0
 11
-85.417429
 21
13.650268
 31
0.0
  0
LINE
  5
3BA
100
AcDbEntity
  8
0
370
     0
390
0
  6
Continuous
 62
     7
100
AcDbLine
 10
-79.417429
 20
49.650268
 30
0.0
 11
-91.417429
 21
49.650268
 31
0.0
  0
LINE
  5
3BB
100
AcDbEntity
  8
0
370
     0
390
0
  6
Continuous
 62
     7
100
AcDbLine
 10
-79.417429
 20
37.650268
 30
0.0
 11
-85.417429
 21
37.650268
 31
0.0
  0
LINE
  5
3BC
100
AcDbEntity
  8
0
370
     0
390
0
  6
Continuous
 62
     7
100
AcDbLine
 10
-79.417429
 20
73.650268
 30
0.0
 11
-91.417429
 21
73.650268
 31
0.0
  0
LINE
  5
3BD
100
AcDbEntity
  8
0
370
     0
390
0
  6
Continuous
 62
     7
100
AcDbLine
 10
-79.417429
 20
61.650268
 30
0.0
 11
-85.417429
 21
61.650268
 31
0.0
  0
LINE
  5
3BE
100
AcDbEntity
  8
0
370
     0
390
0
  6
Continuous
 62
     7
100
AcDbLine
 10
-79.417429
 20
97.650268
 30
0.0
 11
-91.417429
 21
97.650268
 31
0.0
  0
LINE
  5
3BF
100
AcDbEntity
  8
0
370
     0
390
0
  6
Continuous
 62
     7
100
AcDbLine
 10
-79.417429
 20
85.650268
 30
0.0
 11
-85.417429
 21
85.650268
 31
0.0
  0
LINE
  5
3C0
100
AcDbEntity
  8
0
370
     0
390
0
  6
Continuous
 62
     7
100
AcDbLine
 10
-79.417429
 20
121.650268
 30
0.0
 11
-91.417429
 21
121.650268
 31
0.0
  0
LINE
  5
3C1
100
AcDbEntity
  8
0
370
     0
390
0
  6
Continuous
 62
     7
100
AcDbLine
 10
-79.417429
 20
109.650268
 30
0.0
 11
-85.417429
 21
109.650268
 31
0.0
  0
LINE
  5
3C2
100
AcDbEntity
  8
0
370
     0
390
0
  6
Continuous
 62
     7
100
AcDbLine
 10
-79.417429
 20
145.650268
 30
0.0
 11
-91.417429
 21
145.650268
 31
0.0
  0
LINE
  5
3C3
100
AcDbEntity
  8
0
370
     0
390
0
  6
Continuous
 62
     7
100
AcDbLine
 10
-79.417429
 20
133.650268
 30
0.0
 11
-85.417429
 21
133.650268
 31
0.0
  0
LINE
  5
3C4
100
AcDbEntity
  8
0
370
     0
390
0
  6
Continuous
 62
     7
100
AcDbLine
 10
-79.417429
 20
169.650268
 30
0.0
 11
-91.417429
 21
169.650268
 31
0.0
  0
LINE
  5
3C5
100
AcDbEntity
  8
0
370
     0
390
0
  6
Continuous
 62
     7
100
AcDbLine
 10
-79.417429
 20
157.650268
 30
0.0
 11
-85.417429
 21
157.650268
 31
0.0
  0
LINE
  5
3C6
100
AcDbEntity
  8
0
370
     0
390
0
  6
Continuous
 62
     7
100
AcDbLine
 10
-79.417429
 20
181.650268
 30
0.0
 11
-85.417429
 21
181.650268
 31
0.0
  0
TEXT
  5
3C7
100
AcDbEntity
  8
0
370
     0
390
0
  6
Continuous
 62
   174
100
AcDbText
 10
-88.417429
 20
-274.349732
 30
0.0
 40
4.0
  1
2'
 41
-1.0
  7
Vcadd_Handletter
100
AcDbText
  0
TEXT
  5
3C8
100
AcDbEntity
  8
0
370
     0
390
0
  6
Continuous
 62
   174
100
AcDbText
 10
-88.417429
 20
-250.349732
 30
0.0
 40
4.0
  1
4'
 41
-1.0
  7
Vcadd_Handletter
100
AcDbText
  0
TEXT
  5
3C9
100
AcDbEntity
  8
0
370
     0
390
0
  6
Continuous
 62
   174
100
AcDbText
 10
-88.417429
 20
-226.349732
 30
0.0
 40
4.0
  1
6'
 41
-1.0
  7
Vcadd_Handletter
100
AcDbText
  0
TEXT
  5
3CA
100
AcDbEntity
  8
0
370
     0
390
0
  6
Continuous
 62
   174
100
AcDbText
 10
-88.417429
 20
-202.349732
 30
0.0
 40
4.0
  1
8'
 41
-1.0
  7
Vcadd_Handletter
100
AcDbText
  0
TEXT
  5
3CB
100
AcDbEntity
  8
0
370
     0
390
0
  6
Continuous
 62
   174
100
AcDbText
 10
-88.417429
 20
-178.349732
 30
0.0
 40
4.0
  1
10'
 41
-1.0
  7
Vcadd_Handletter
100
AcDbText
  0
TEXT
  5
3CC
100
AcDbEntity
  8
0
370
     0
390
0
  6
Continuous
 62
   174
100
AcDbText
 10
-88.417429
 20
-154.349732
 30
0.0
 40
4.0
  1
12'
 41
-1.0
  7
Vcadd_Handletter
100
AcDbText
  0
TEXT
  5
3CD
100
AcDbEntity
  8
0
370
     0
390
0
  6
Continuous
 62
   174
100
AcDbText
 10
-88.417429
 20
-130.349732
 30
0.0
 40
4.0
  1
14'
 41
-1.0
  7
Vcadd_Handletter
100
AcDbText
  0
TEXT
  5
3CE
100
AcDbEntity
  8
0
370
     0
390
0
  6
Continuous
 62
   174
100
AcDbText
 10
-88.417429
 20
-106.349732
 30
0.0
 40
4.0
  1
16'
 41
-1.0
  7
Vcadd_Handletter
100
AcDbText
  0
TEXT
  5
3CF
100
AcDbEntity
  8
0
370
     0
390
0
  6
Continuous
 62
   174
100
AcDbText
 10
-88.417429
 20
-82.349732
 30
0.0
 40
4.0
  1
18'
 41
-1.0
  7
Vcadd_Handletter
100
AcDbText
  0
TEXT
  5
3D0
100
AcDbEntity
  8
0
370
     0
390
0
  6
Continuous
 62
   174
100
AcDbText
 10
-88.417429
 20
-58.349732
 30
0.0
 40
4.0
  1
20'
 41
-1.0
  7
Vcadd_Handletter
100
AcDbText
  0
TEXT
  5
3D1
100
AcDbEntity
  8
0
370
     0
390
0
  6
Continuous
 62
   174
100
AcDbText
 10
-88.417429
 20
-34.349732
 30
0.0
 40
4.0
  1
22'
 41
-1.0
  7
Vcadd_Handletter
100
AcDbText
  0
TEXT
  5
3D2
100
AcDbEntity
  8
0
370
     0
390
0
  6
Continuous
 62
   174
100
AcDbText
 10
-88.417429
 20
-10.349732
 30
0.0
 40
4.0
  1
24'
 41
-1.0
  7
Vcadd_Handletter
100
AcDbText
  0
TEXT
  5
3D3
100
AcDbEntity
  8
0
370
     0
390
0
  6
Continuous
 62
   174
100
AcDbText
 10
-88.417429
 20
13.650268
 30
0.0
 40
4.0
  1
26'
 41
-1.0
  7
Vcadd_Handletter
100
AcDbText
  0
TEXT
  5
3D4
100
AcDbEntity
  8
0
370
     0
390
0
  6
Continuous
 62
   174
100
AcDbText
 10
-88.417429
 20
37.650268
 30
0.0
 40
4.0
  1
28'
 41
-1.0
  7
Vcadd_Handletter
100
AcDbText
  0
TEXT
  5
3D5
100
AcDbEntity
  8
0
370
     0
390
0
  6
Continuous
 62
   174
100
AcDbText
 10
-88.417429
 20
61.650268
 30
0.0
 40
4.0
  1
30'
 41
-1.0
  7
Vcadd_Handletter
100
AcDbText
  0
TEXT
  5
3D6
100
AcDbEntity
  8
0
370
     0
390
0
  6
Continuous
 62
   174
100
AcDbText
 10
-88.417429
 20
85.650268
 30
0.0
 40
4.0
  1
32'
 41
-1.0
  7
Vcadd_Handletter
100
AcDbText
  0
TEXT
  5
3D7
100
AcDbEntity
  8
0
370
     0
390
0
  6
Continuous
 62
   174
100
AcDbText
 10
-88.417429
 20
109.650268
 30
0.0
 40
4.0
  1
34'
 41
-1.0
  7
Vcadd_Handletter
100
AcDbText
  0
TEXT
  5
3D8
100
AcDbEntity
  8
0
370
     0
390
0
  6
Continuous
 62
   174
100
AcDbText
 10
-88.417429
 20
133.650268
 30
0.0
 40
4.0
  1
36'
 41
-1.0
  7
Vcadd_Handletter
100
AcDbText
  0
TEXT
  5
3D9
100
AcDbEntity
  8
0
370
     0
390
0
  6
Continuous
 62
   174
100
AcDbText
 10
-88.417429
 20
157.650268
 30
0.0
 40
4.0
  1
38'
 41
-1.0
  7
Vcadd_Handletter
100
AcDbText
  0
TEXT
  5
3DA
100
AcDbEntity
  8
0
370
     0
390
0
  6
Continuous
 62
   174
100
AcDbText
 10
-88.417429
 20
181.650268
 30
0.0
 40
4.0
  1
40'
 41
-1.0
  7
Vcadd_Handletter
100
AcDbText
  0
LINE
  5
3DB
100
AcDbEntity
  8
0
370
     0
390
0
  6
Continuous
 62
     7
100
AcDbLine
 10
-79.417429
 20
-286.349732
 30
0.0
 11
-91.417429
 21
-286.349732
 31
0.0
  0
LINE
  5
3DC
100
AcDbEntity
  8
0
370
     0
390
0
  6
Continuous
 62
   174
100
AcDbLine
 10
-79.417429
 20
181.650268
 30
0.0
 11
-79.417429
 21
-298.349732
 31
0.0
  0
TEXT
  5
3DD
100
AcDbEntity
  8
TITLE BLOCK
370
     0
390
0
  6
Continuous
 62
   174
100
AcDbText
 10
614.082637
 20
-729.714453
 30
0.0
 40
5.0
  1
Pace University
  7
Vcadd_Handletter
100
AcDbText
  0
TEXT
  5
3DE
100
AcDbEntity
  8
TITLE BLOCK
370
     0
390
0
  6
Continuous
 62
   174
100
AcDbText
 10
614.082637
 20
-739.714453
 30
0.0
 40
5.0
  1
Schimmel Center for the Arts
  7
Vcadd_Handletter
100
AcDbText
  0
TEXT
  5
3DF
100
AcDbEntity
  8
TITLE BLOCK
370
     0
390
0
  6
Continuous
 62
   174
100
AcDbText
 10
614.082637
 20
-749.714453
 30
0.0
 40
5.0
  1
September 28 - October 1, 2000
  7
Vcadd_Handletter
100
AcDbText
  0
INSERT
  5
3E7
100
AcDbEntity
  8
0
370
     0
390
0
  6
Continuous
 62
   174
100
AcDbBlockReference
  2
SIGHTLN
 10
661.504061
 20
-511.349732
 30
0.0
 50
270.0
  0
TEXT
  5
3E8
100
AcDbEntity
  8
0
370
     0
390
0
  6
Continuous
 62
   174
100
AcDbText
 10
668.86743
 20
-511.349732
 30
0.0
 40
2.5
  1
Sightline
  7
Vcadd_Handletter
100
AcDbText
  0
INSERT
  5
3E9
100
AcDbEntity
  8
0
370
     0
390
0
  6
Continuous
 62
   174
100
AcDbBlockReference
  2
SIGHTLN
 10
109.572761
 20
-511.349732
 30
0.0
 41
-1.0
 50
90.0
  0
TEXT
  5
3EA
100
AcDbEntity
  8
0
370
     0
390
0
  6
Continuous
 62
   174
100
AcDbText
 10
102.209391
 20
-511.349732
 30
0.0
 40
2.5
  1
Sightline
 50
360.0
 41
-1.0
  7
Vcadd_Handletter
100
AcDbText
  0
LINE
  5
3EB
100
AcDbEntity
  8
POS-HIDDEN
370
     0
390
0
  6
DOT
 62
     7
100
AcDbLine
 10
139.582571
 20
-167.349732
 30
0.0
 11
385.582571
 21
-167.349732
 31
0.0
  0
LINE
  5
3EC
100
AcDbEntity
  8
POS-HIDDEN
370
     0
390
0
  6
DOT
 62
     7
100
AcDbLine
 10
631.582571
 20
-167.349732
 30
0.0
 11
385.582571
 21
-167.349732
 31
0.0
  0
LINE
  5
3ED
100
AcDbEntity
  8
POS-HIDDEN
370
     0
390
0
  6
DOT
 62
     7
100
AcDbLine
 10
139.582571
 20
-168.349732
 30
0.0
 11
385.582571
 21
-168.349732
 31
0.0
  0
LINE
  5
3EE
100
AcDbEntity
  8
POS-HIDDEN
370
     0
390
0
  6
DOT
 62
     7
100
AcDbLine
 10
631.582571
 20
-168.349732
 30
0.0
 11
385.582571
 21
-168.349732
 31
0.0
  0
LINE
  5
3EF
100
AcDbEntity
  8
POS-HIDDEN
370
     0
390
0
  6
DOT
 62
     7
100
AcDbLine
 10
139.582571
 20
-169.349732
 30
0.0
 11
385.582571
 21
-169.349732
 31
0.0
  0
LINE
  5
3F0
100
AcDbEntity
  8
POS-HIDDEN
370
     0
390
0
  6
DOT
 62
     7
100
AcDbLine
 10
631.582571
 20
-169.349732
 30
0.0
 11
385.582571
 21
-169.349732
 31
0.0
  0
LINE
  5
3F1
100
AcDbEntity
  8
POS-HIDDEN
370
     0
390
0
  6
DOT
 62
     7
100
AcDbLine
 10
394.582571
 20
-253.349732
 30
0.0
 11
638.832571
 21
-253.349732
 31
0.0
  0
LINE
  5
3F2
100
AcDbEntity
  8
POS-HIDDEN
370
     0
390
0
  6
DOT
 62
     7
100
AcDbLine
 10
394.582571
 20
-252.349732
 30
0.0
 11
638.832571
 21
-252.349732
 31
0.0
  0
LINE
  5
3F3
100
AcDbEntity
  8
POS-HIDDEN
370
     0
390
0
  6
DOT
 62
     7
100
AcDbLine
 10
394.582571
 20
-251.349732
 30
0.0
 11
638.832571
 21
-251.349732
 31
0.0
  0
LINE
  5
3F4
100
AcDbEntity
  8
POS-HIDDEN
370
     0
390
0
  6
DOT
 62
     7
100
AcDbLine
 10
394.582571
 20
-253.349732
 30
0.0
 11
150.332571
 21
-253.349732
 31
0.0
  0
LINE
  5
3F5
100
AcDbEntity
  8
POS-HIDDEN
370
     0
390
0
  6
DOT
 62
     7
100
AcDbLine
 10
394.582571
 20
-252.349732
 30
0.0
 11
150.332571
 21
-252.349732
 31
0.0
  0
LINE
  5
3F6
100
AcDbEntity
  8
POS-HIDDEN
370
     0
390
0
  6
DOT
 62
     7
100
AcDbLine
 10
394.582571
 20
-251.349732
 30
0.0
 11
150.332571
 21
-251.349732
 31
0.0
  0
ENDSEC
  0
SECTION
  2
OBJECTS
  0
DICTIONARY
  5
19
100
AcDbDictionary
280
     0
281
     1
  3
ACAD_GROUP
350
1A
  3
ACAD_MLINESTYLE
350
1B
  3
ACAD_LAYOUT
350
1E
  3
ACAD_PLOTSETTINGS
350
22
  3
ACAD_PLOTSTYLENAME
350
1F
  3
ACAD_WIPEOUT_VARS
350
23
  0
DICTIONARY
  5
1A
102
{ACAD_REACTORS
330
19
102
}
100
AcDbDictionary
280
     0
281
     1
  0
DICTIONARY
  5
1B
102
{ACAD_REACTORS
330
19
102
}
100
AcDbDictionary
280
     0
281
     1
  3
Standard
350
1C
  0
MLINESTYLE
  5
1C
102
{ACAD_REACTORS
330
1B
102
}
100
AcDbMlineStyle
  2
Standard
 70
     0
  3

 62
     0
 51
90.0
 52
90.0
 71
     2
 49
0.5
 62
   256
  6
ByLayer
 49
-0.5
 62
   256
  6
ByLayer
  0
ACDBDICTIONARYWDFLT
  5
1F
102
{ACAD_REACTORS
330
19
102
}
100
AcDbDictionary
281
     1
  3
Normal
350
1D
100
AcDbDictionaryWithDefault
340
1D
  0
ACDBPLACEHOLDER
  5
1D
102
{ACAD_REACTORS
330
1F
102
}
  0
LAYOUT
  5
20
102
{ACAD_REACTORS
330
1E
102
}
100
AcDbPlotSettings
  1

  2

  4

  6

 40
0.0
 41
0.0
 42
0.0
 43
0.0
 44
0.0
 45
0.0
 46
0.0
 47
0.0
 48
0.0
 49
0.0
140
0.0
141
0.0
142
1.0
143
1.0
 70
  1024
 72
     0
 73
     0
 74
     0
  7

 75
     0
147
1.0
148
0.0
149
0.0
100
AcDbLayout
  1
Model
 70
     0
 71
     0
 10
0.0
 20
0.0
 11
0.0
 21
0.0
 12
0.0
 22
0.0
 32
0.0
 14
0.0
 24
0.0
 34
0.0
 15
0.0
 25
0.0
 35
0.0
146
0.0
 13
0.0
 23
0.0
 33
0.0
 16
0.0
 26
0.0
 36
0.0
 17
0.0
 27
0.0
 37
0.0
 76
     0
330
A
331
0
345
0
346
0
  0
LAYOUT
  5
21
102
{ACAD_REACTORS
330
1E
102
}
100
AcDbPlotSettings
  1

  2

  4

  6

 40
0.0
 41
0.0
 42
0.0
 43
0.0
 44
0.0
 45
0.0
 46
0.0
 47
0.0
 48
0.0
 49
0.0
140
0.0
141
0.0
142
1.0
143
1.0
 70
     0
 72
     0
 73
     0
 74
     0
  7

 75
     0
147
1.0
148
0.0
149
0.0
100
AcDbLayout
  1
Layout1
 70
     0
 71
     0
 10
0.0
 20
0.0
 11
0.0
 21
0.0
 12
0.0
 22
0.0
 32
0.0
 14
0.0
 24
0.0
 34
0.0
 15
0.0
 25
0.0
 35
0.0
146
0.0
 13
0.0
 23
0.0
 33
0.0
 16
0.0
 26
0.0
 36
0.0
 17
0.0
 27
0.0
 37
0.0
 76
     0
330
B
331
0
345
0
346
0
  0
DICTIONARY
  5
1E
102
{ACAD_REACTORS
330
19
102
}
100
AcDbDictionary
280
     0
281
     1
  3
Layout1
350
21
  3
Model
350
20
  0
DICTIONARY
  5
22
102
{ACAD_REACTORS
330
19
102
}
100
AcDbDictionary
280
     0
281
     1
  0
WIPEOUTVARIABLES
  5
23
100
AcDbWipeoutVariables
 70
     1
  0
ENDSEC
  0
EOF
