  0
SECTION
  2
HEADER
  9
$ACADVER
  1
AC1015
  9
$ACADMAINTVER
 70
     6
  9
$DWGCODEPAGE
  3
ANSI_1252
  9
$INSBASE
 10
0.0
 20
0.0
 30
0.0
  9
$EXTMIN
 10
-816.801941
 20
-628.321106
 30
0.0
  9
$EXTMAX
 10
671.206421
 20
420.051239
 30
0.0
  9
$LIMMIN
 10
0.0
 20
0.0
  9
$LIMMAX
 10
0.0
 20
0.0
  9
$ORTHOMODE
 70
     0
  9
$REGENMODE
 70
     1
  9
$FILLMODE
 70
     1
  9
$QTEXTMODE
 70
     0
  9
$MIRRTEXT
 70
     1
  9
$LTSCALE
 40
1.0
  9
$ATTMODE
 70
     1
  9
$TEXTSIZE
 40
0.2
  9
$TRACEWID
 40
0.05
  9
$TEXTSTYLE
  7
Standard
  9
$CLAYER
  8
0
  9
$CELTYPE
  6
Continuous
  9
$CECOLOR
 62
   256
  9
$CELTSCALE
 40
1.0
  9
$DISPSILH
 70
     0
  9
$DIMSCALE
 40
1.0
  9
$DIMASZ
 40
0.18
  9
$DIMEXO
 40
0.0625
  9
$DIMDLI
 40
0.38
  9
$DIMRND
 40
0.0
  9
$DIMDLE
 40
0.0
  9
$DIMEXE
 40
0.18
  9
$DIMTP
 40
0.0
  9
$DIMTM
 40
0.0
  9
$DIMTXT
 40
0.18
  9
$DIMCEN
 40
0.09
  9
$DIMTSZ
 40
0.0
  9
$DIMTOL
 70
     0
  9
$DIMLIM
 70
     0
  9
$DIMTIH
 70
     1
  9
$DIMTOH
 70
     1
  9
$DIMSE1
 70
     0
  9
$DIMSE2
 70
     0
  9
$DIMTAD
 70
     0
  9
$DIMZIN
 70
     0
  9
$DIMBLK
  1

  9
$DIMASO
 70
     1
  9
$DIMSHO
 70
     1
  9
$DIMPOST
  1

  9
$DIMAPOST
  1

  9
$DIMALT
 70
     0
  9
$DIMALTD
 70
     2
  9
$DIMALTF
 40
25.4
  9
$DIMLFAC
 40
1.0
  9
$DIMTOFL
 70
     0
  9
$DIMTVP
 40
0.0
  9
$DIMTIX
 70
     0
  9
$DIMSOXD
 70
     0
  9
$DIMSAH
 70
     0
  9
$DIMBLK1
  1

  9
$DIMBLK2
  1

  9
$DIMSTYLE
  2
Standard
  9
$DIMCLRD
 70
     0
  9
$DIMCLRE
 70
     0
  9
$DIMCLRT
 70
     0
  9
$DIMTFAC
 40
1.0
  9
$DIMGAP
 40
0.09
  9
$DIMJUST
 70
     0
  9
$DIMSD1
 70
     0
  9
$DIMSD2
 70
     0
  9
$DIMTOLJ
 70
     1
  9
$DIMTZIN
 70
     0
  9
$DIMALTZ
 70
     0
  9
$DIMALTTZ
 70
     0
  9
$DIMUPT
 70
     0
  9
$DIMDEC
 70
     4
  9
$DIMTDEC
 70
     4
  9
$DIMALTU
 70
     2
  9
$DIMALTTD
 70
     2
  9
$DIMTXSTY
  7
Standard
  9
$DIMAUNIT
 70
     0
  9
$DIMADEC
 70
     0
  9
$DIMALTRND
 40
0.0
  9
$DIMAZIN
 70
     0
  9
$DIMDSEP
 70
     0
  9
$DIMATFIT
 70
     3
  9
$DIMFRAC
 70
     0
  9
$DIMLDRBLK
  1

  9
$DIMLUNIT
 70
     2
  9
$DIMLWD
 70
     0
  9
$DIMLWE
 70
     0
  9
$DIMTMOVE
 70
     0
  9
$LUNITS
 70
     2
  9
$LUPREC
 70
     4
  9
$SKETCHINC
 40
0.1
  9
$FILLETRAD
 40
0.0
  9
$AUNITS
 70
     0
  9
$AUPREC
 70
     0
  9
$MENU
  1
acad
  9
$ELEVATION
 40
0.0
  9
$PELEVATION
 40
0.0
  9
$THICKNESS
 40
0.0
  9
$LIMCHECK
 70
     0
  9
$CHAMFERA
 40
0.0
  9
$CHAMFERB
 40
0.0
  9
$CHAMFERC
 40
0.0
  9
$CHAMFERD
 40
0.0
  9
$SKPOLY
 70
     0
  9
$TDCREATE
 40
0.000000000
  9
$TDUCREATE
 40
0.000000000
  9
$TDUPDATE
 40
0.000000000
  9
$TDUUPDATE
 40
0.000000000
  9
$TDINDWG
 40
0.0000000000
  9
$TDUSRTIMER
 40
0.0000000000
  9
$USRTIMER
 70
     1
  9
$ANGBASE
 50
0.0
  9
$ANGDIR
 70
     0
  9
$PDMODE
 70
     2
  9
$PDSIZE
 40
-1.0
  9
$PLINEWID
 40
0.0
  9
$SPLFRAME
 70
     0
  9
$SPLINETYPE
 70
     6
  9
$SPLINESEGS
 70
     8
  9
$HANDSEED
  5
3AC
  9
$SURFTAB1
 70
     6
  9
$SURFTAB2
 70
     6
  9
$SURFTYPE
 70
     6
  9
$SURFU
 70
     6
  9
$SURFV
 70
     6
  9
$UCSBASE
  2

  9
$UCSNAME
  2

  9
$UCSORG
 10
0.0
 20
0.0
 30
0.0
  9
$UCSXDIR
 10
1.0
 20
0.0
 30
0.0
  9
$UCSYDIR
 10
0.0
 20
1.0
 30
0.0
  9
$UCSORTHOREF
  2

  9
$UCSORTHOVIEW
 70
     0
  9
$UCSORGTOP
 10
0.0
 20
0.0
 30
0.0
  9
$UCSORGBOTTOM
 10
0.0
 20
0.0
 30
0.0
  9
$UCSORGLEFT
 10
0.0
 20
0.0
 30
0.0
  9
$UCSORGRIGHT
 10
0.0
 20
0.0
 30
0.0
  9
$UCSORGFRONT
 10
0.0
 20
0.0
 30
0.0
  9
$UCSORGBACK
 10
0.0
 20
0.0
 30
0.0
  9
$PUCSBASE
  2

  9
$PUCSNAME
  2

  9
$PUCSORG
 10
0.0
 20
0.0
 30
0.0
  9
$PUCSXDIR
 10
1.0
 20
0.0
 30
0.0
  9
$PUCSYDIR
 10
0.0
 20
1.0
 30
0.0
  9
$PUCSORTHOREF
  2

  9
$PUCSORTHOVIEW
 70
     0
  9
$PUCSORGTOP
 10
0.0
 20
0.0
 30
0.0
  9
$PUCSORGBOTTOM
 10
0.0
 20
0.0
 30
0.0
  9
$PUCSORGLEFT
 10
0.0
 20
0.0
 30
0.0
  9
$PUCSORGRIGHT
 10
0.0
 20
0.0
 30
0.0
  9
$PUCSORGFRONT
 10
0.0
 20
0.0
 30
0.0
  9
$PUCSORGBACK
 10
0.0
 20
0.0
 30
0.0
  9
$USERI1
 70
     0
  9
$USERI2
 70
     0
  9
$USERI3
 70
     0
  9
$USERI4
 70
     0
  9
$USERI5
 70
     0
  9
$USERR1
 40
0.0
  9
$USERR2
 40
0.0
  9
$USERR3
 40
0.0
  9
$USERR4
 40
0.0
  9
$USERR5
 40
0.0
  9
$WORLDVIEW
 70
     1
  9
$SHADEDGE
 70
     3
  9
$SHADEDIF
 70
    70
  9
$TILEMODE
 70
     1
  9
$MAXACTVP
 70
    16
  9
$PINSBASE
 10
0.0
 20
0.0
 30
0.0
  9
$PLIMCHECK
 70
     0
  9
$PEXTMIN
 10
1.000000E+20
 20
1.000000E+20
 30
1.000000E+20
  9
$PEXTMAX
 10
-1.000000E+20
 20
-1.000000E+20
 30
-1.000000E+20
  9
$PLIMMIN
 10
0.0
 20
0.0
  9
$PLIMMAX
 10
12.0
 20
9.0
  9
$UNITMODE
 70
     0
  9
$VISRETAIN
 70
     0
  9
$PLINEGEN
 70
     1
  9
$PSLTSCALE
 70
     0
  9
$TREEDEPTH
 70
  3020
  9
$CMLSTYLE
  2
Standard
  9
$CMLJUST
 70
     0
  9
$CMLSCALE
 40
1.0
  9
$PROXYGRAPHICS
 70
     0
  9
$MEASUREMENT
 70
     0
  9
$CELWEIGHT
370
     0
  9
$ENDCAPS
280
     0
  9
$JOINSTYLE
280
     0
  9
$LWDISPLAY
290
     1
  9
$INSUNITS
 70
     0
  9
$HYPERLINKBASE
  1

  9
$STYLESHEET
  1

  9
$XEDIT
290
     1
  9
$CEPSNTYPE
380
     0
  9
$PSTYLEMODE
290
     1
  9
$FINGERPRINTGUID
  2

  9
$VERSIONGUID
  2

  9
$EXTNAMES
290
     1
  9
$PSVPSCALE
 40
0.0
  0
ENDSEC
  0
SECTION
  2
CLASSES
  0
CLASS
  1
LWPOLYLINE
  2
AcDbPolyline
  3
AutoCAD 2000
 90
        0
280
     0
281
     1
  0
CLASS
  1
IMAGE
  2
AcDbRasterImage
  3
ISM
 90
      127
280
     0
281
     1
  0
CLASS
  1
OLE2FRAME
  2
AcDbOle2Frame
  3
AutoCAD 2000
 90
        0
280
     0
281
     1
  0
CLASS
  1
HATCH
  2
AcDbHatch
  3
AutoCAD 2000
 90
        0
280
     0
281
     1
  0
CLASS
  1
DICTIONARYVAR
  2
AcDbDictionaryVar
  3
AutoCAD 2000
 90
        0
280
     0
281
     0
  0
CLASS
  1
RASTERVARIABLES
  2
AcDbRasterVariables
  3
ISM
 90
        0
280
     0
281
     0
  0
CLASS
  1
IMAGEDEF
  2
AcDbRasterImageDef
  3
ISM
 90
        0
280
     0
281
     0
  0
CLASS
  1
IMAGEDEF_REACTOR
  2
AcDbRasterImageDefReactor
  3
ISM
 90
        1
280
     0
281
     0
  0
CLASS
  1
IDBUFFER
  2
AcDbIdBuffer
  3
AutoCAD 2000
 90
        0
280
     0
281
     0
  0
CLASS
  1
SPATIAL_FILTER
  2
AcDbSpatialFilter
  3
AutoCAD 2000
 90
        0
280
     0
281
     0
  0
CLASS
  1
XRECORD
  2
AcDbXrecord
  3
AutoCAD 2000
 90
        0
280
     0
281
     0
  0
CLASS
  1
SORTENTSTABLE
  2
AcDbSortentsTable
  3
AutoCAD 2000
 90
        0
280
     0
281
     0
  0
CLASS
  1
LAYER_INDEX
  2
AcDbLayerIndex
  3
AutoCAD 2000
 90
        0
280
     0
281
     0
  0
CLASS
  1
SPATIAL_INDEX
  2
AcDbSpatialIndex
  3
AutoCAD 2000
 90
        0
280
     0
281
     0
  0
CLASS
  1
OBJECT_PTR
  2
CAseDLPNTableRecord
  3
"ASE-LPNTableRecord"
 90
        1
280
     0
281
     0
  0
CLASS
  1
LAYOUT
  2
AcDbLayout
  3
AutoCAD 2000
 90
        0
280
     0
281
     0
  0
CLASS
  1
PLOTSETTINGS
  2
AcDbPlotSettings
  3
AutoCAD 2000
 90
        0
280
     0
281
     0
  0
CLASS
  1
ACDBDICTIONARYWDFLT
  2
AcDbDictionaryWithDefault
  3
AutoCAD 2000
 90
        0
280
     0
281
     0
  0
CLASS
  1
ACDBPLACEHOLDER
  2
AcDbPlaceHolder
  3
AutoCAD 2000
 90
        0
280
     0
281
     0
  0
CLASS
  1
VBA_PROJECT
  2
AcDbVbaProject
  3
acadvba
 90
        0
280
     0
281
     0
  0
CLASS
  1
WIPEOUT
  2
AcDbWipeout
  3
WipeOut|AutoCAD Express Tool|expresstools@autodesk.com
 90
      127
280
     0
281
     1
  0
CLASS
  1
WIPEOUTVARIABLES
  2
AcDbWipeoutVariables
  3
WipeOut|AutoCAD Express Tool|expresstools@autodesk.com
 90
        0
280
     0
281
     0
  0
CLASS
  1
RTEXT
  2
RText
  3
RText|AutoCAD Express Tool|expresstools@autodesk.com
 90
        0
280
     0
281
     1
  0
CLASS
  1
ARCALIGNEDTEXT
  2
AcDbArcAlignedText
  3
ATEXT|AutoCAD Express Tool|expresstools@autodesk.com
 90
        0
280
     0
281
     1
  0
ENDSEC
  0
SECTION
  2
TABLES
  0
TABLE
  2
VPORT
  5
7
100
AcDbSymbolTable
 70
     2
  0
VPORT
  5
15
100
AcDbSymbolTableRecord
100
AcDbViewportTableRecord
  2
*ACTIVE
 70
     0
 10
0.0
 20
0.0
 11
1.0
 21
1.0
 12
6.591288
 22
4.579184
 13
0.0
 23
0.0
 14
1.0
 24
1.0
 15
0.0
 25
0.0
 16
0.0
 26
0.0
 36
1.0
 17
0.0
 27
0.0
 37
0.0
 40
9.158369
 41
0.688564
 42
50.0
 43
0.0
 44
0.0
 50
0.0
 51
0.0
 71
     0
 72
   100
 73
     1
 74
     1
 75
     0
 76
     0
 77
     0
 78
     0
281
     0
 65
     0
110
0.0
120
0.0
130
0.0
111
1.0
121
0.0
131
0.0
112
0.0
122
1.0
132
0.0
345
0
346
0
 79
     0
146
0.0
  0
VPORT
  5
3AB
100
AcDbSymbolTableRecord
100
AcDbViewportTableRecord
  2
MYVPORT
 70
     0
 10
0.0
 20
0.0
 11
1.0
 21
1.0
 12
6.21
 22
9.02
 13
0.0
 23
0.0
 14
1.0
 24
1.0
 15
0.0
 25
0.0
 16
0.0
 26
0.0
 36
1.0
 17
0.0
 27
0.0
 37
0.0
 40
18.04
 41
0.688564
 42
50.0
 43
0.0
 44
0.0
 50
0.0
 51
0.0
 71
     0
 72
   100
 73
     1
 74
     1
 75
     0
 76
     0
 77
     0
 78
     0
281
     0
 65
     0
110
0.0
120
0.0
130
0.0
111
1.0
121
0.0
131
0.0
112
0.0
122
1.0
132
0.0
345
0
346
0
 79
     0
146
0.0
  0
ENDTAB
  0
TABLE
  2
LTYPE
  5
4
100
AcDbSymbolTable
 70
     6
  0
LTYPE
  5
11
100
AcDbSymbolTableRecord
100
AcDbLinetypeTableRecord
  2
ByBlock
 70
    64
  3

 72
    65
 73
     0
 40
0.0
  0
LTYPE
  5
12
100
AcDbSymbolTableRecord
100
AcDbLinetypeTableRecord
  2
ByLayer
 70
    64
  3

 72
    65
 73
     0
 40
0.0
  0
LTYPE
  5
13
100
AcDbSymbolTableRecord
100
AcDbLinetypeTableRecord
  2
Continuous
 70
    64
  3
Solid line
 72
    65
 73
     0
 40
0.0
  0
LTYPE
  5
AD
100
AcDbSymbolTableRecord
100
AcDbLinetypeTableRecord
  2
CENTER
 70
    64
  3
Visual CADD Translation
 72
    65
 73
     4
 40
1.265
 49
0.115
 74
     0
 49
-0.07
 74
     0
 49
1.01
 74
     0
 49
-0.07
 74
     0
  0
LTYPE
  5
239
100
AcDbSymbolTableRecord
100
AcDbLinetypeTableRecord
  2
DASHED
 70
    64
  3
Visual CADD Translation
 72
    65
 73
     2
 40
0.32
 49
0.24
 74
     0
 49
-0.08
 74
     0
  0
LTYPE
  5
252
100
AcDbSymbolTableRecord
100
AcDbLinetypeTableRecord
  2
DOT
 70
    64
  3
Visual CADD Translation
 72
    65
 73
     2
 40
0.1
 49
0.0
 74
     0
 49
-0.1
 74
     0
  0
ENDTAB
  0
TABLE
  2
LAYER
  5
2
100
AcDbSymbolTable
 70
    15
  0
LAYER
  5
14
100
AcDbSymbolTableRecord
100
AcDbLayerTableRecord
  2
0
 70
     0
 62
     7
  6
Continuous
290
     1
370
    -3
390
1D
  0
LAYER
  5
24
100
AcDbSymbolTableRecord
100
AcDbLayerTableRecord
  2
POS-HIDDEN
 70
     0
 62
     7
  6
Continuous
290
     1
370
    -3
390
1D
  0
LAYER
  5
25
100
AcDbSymbolTableRecord
100
AcDbLayerTableRecord
  2
POS-REVEAL
 70
     0
 62
     7
  6
Continuous
290
     1
370
    -3
390
1D
  0
LAYER
  5
26
100
AcDbSymbolTableRecord
100
AcDbLayerTableRecord
  2
TITLE BLOCK
 70
     0
 62
     7
  6
Continuous
290
     1
370
    -3
390
1D
  0
LAYER
  5
27
100
AcDbSymbolTableRecord
100
AcDbLayerTableRecord
  2
LEGEND
 70
     0
 62
     7
  6
Continuous
290
     1
370
    -3
390
1D
  0
LAYER
  5
28
100
AcDbSymbolTableRecord
100
AcDbLayerTableRecord
  2
BORDER
 70
     0
 62
     7
  6
Continuous
290
     1
370
    -3
390
1D
  0
LAYER
  5
29
100
AcDbSymbolTableRecord
100
AcDbLayerTableRecord
  2
House Plot LAMPS
 70
     0
 62
     7
  6
Continuous
290
     1
370
    -3
390
1D
  0
LAYER
  5
2A
100
AcDbSymbolTableRecord
100
AcDbLayerTableRecord
  2
SCRATCH
 70
     0
 62
     7
  6
Continuous
290
     1
370
    -3
390
1D
  0
LAYER
  5
2B
100
AcDbSymbolTableRecord
100
AcDbLayerTableRecord
  2
HOUSE CIRCUITS
 70
     0
 62
     7
  6
Continuous
290
     1
370
    -3
390
1D
  0
LAYER
  5
2C
100
AcDbSymbolTableRecord
100
AcDbLayerTableRecord
  2
Hash Marks
 70
     0
 62
     7
  6
Continuous
290
     1
370
    -3
390
1D
  0
LAYER
  5
2D
100
AcDbSymbolTableRecord
100
AcDbLayerTableRecord
  2
Boomz
 70
     0
 62
     7
  6
Continuous
290
     1
370
    -3
390
1D
  0
LAYER
  5
2E
100
AcDbSymbolTableRecord
100
AcDbLayerTableRecord
  2
Area Centers
 70
     0
 62
     7
  6
Continuous
290
     1
370
    -3
390
1D
  0
LAYER
  5
2F
100
AcDbSymbolTableRecord
100
AcDbLayerTableRecord
  2
Index
 70
     0
 62
     7
  6
Continuous
290
     1
370
    -3
390
1D
  0
LAYER
  5
30
100
AcDbSymbolTableRecord
100
AcDbLayerTableRecord
  2
.25 inch
 70
     0
 62
     7
  6
Continuous
290
     1
370
    -3
390
1D
  0
LAYER
  5
31
100
AcDbSymbolTableRecord
100
AcDbLayerTableRecord
  2
.1875 inch
 70
     0
 62
     7
  6
Continuous
290
     1
370
    -3
390
1D
  0
ENDTAB
  0
TABLE
  2
STYLE
  5
3
100
AcDbSymbolTable
 70
     3
  0
STYLE
  5
17
100
AcDbSymbolTableRecord
100
AcDbTextStyleTableRecord
  2
Standard
 70
     0
 40
0.0
 41
1.0
 50
0.0
 71
     0
 42
0.0
  3
txt
  4

  0
STYLE
  5
39
100
AcDbSymbolTableRecord
100
AcDbTextStyleTableRecord
  2
Vcadd_ENGINEER
 70
     0
 40
0.0
 41
1.0
 50
0.0
 71
     0
 42
0.0
  3
ENGINEER
  4

  0
STYLE
  5
328
100
AcDbSymbolTableRecord
100
AcDbTextStyleTableRecord
  2
Vcadd_AGATE
 70
     0
 40
0.0
 41
1.0
 50
0.0
 71
     0
 42
0.0
  3
AGATE
  4

  0
ENDTAB
  0
TABLE
  2
VIEW
  5
5
100
AcDbSymbolTable
 70
     0
  0
ENDTAB
  0
TABLE
  2
UCS
  5
6
100
AcDbSymbolTable
 70
     1
  0
UCS
  5
3AA
100
AcDbSymbolTableRecord
100
AcDbUCSTableRecord
  2
MYUCS
 70
     0
 10
0.0
 20
0.0
 30
0.0
 11
0.0
 21
1.0
 31
0.0
 12
0.0
 22
0.0
 32
1.0
 79
     0
146
0.0
  0
ENDTAB
  0
TABLE
  2
APPID
  5
8
100
AcDbSymbolTable
 70
     1
  0
APPID
  5
16
100
AcDbSymbolTableRecord
100
AcDbRegAppTableRecord
  2
ACAD
 70
     0
  0
ENDTAB
  0
TABLE
  2
DIMSTYLE
  5
9
100
AcDbSymbolTable
 70
     2
100
AcDbDimStyleTable
 71
     0
  0
DIMSTYLE
105
18
100
AcDbSymbolTableRecord
100
AcDbDimStyleTableRecord
  2
Standard
 70
     0
  3

  4

 40
1.0
 41
0.18
 42
0.0625
 43
0.38
 44
0.18
 45
0.0
 46
0.0
 47
0.0
 48
0.0
 71
     0
 72
     0
 73
     1
 74
     1
 75
     0
 76
     0
 77
     0
 78
     0
 79
     0
140
0.18
141
0.09
142
0.0
143
25.4
144
1.0
145
0.0
146
1.0
147
0.09
148
0.0
170
     0
171
     2
172
     0
173
     0
174
     0
175
     0
176
     0
177
     0
178
     0
179
     0
271
     4
272
     4
273
     2
274
     2
275
     0
276
     0
277
     2
278
    46
279
     0
280
     0
281
     0
282
     0
283
     1
284
     0
285
     0
286
     0
288
     0
289
     3
340
17
341
0
342
0
343
0
344
0
371
    -2
372
    -2
  0
DIMSTYLE
105
3A
100
AcDbSymbolTableRecord
100
AcDbDimStyleTableRecord
  2
VCADD_DIMSTYLE
 70
     0
  3

  4

 40
1.0
 41
1.0
 42
0.2
 43
0.0
 44
0.2
 45
0.0
 46
0.0
 47
1.0
 48
1.0
 71
     0
 72
     0
 73
     0
 74
     1
 75
     0
 76
     0
 77
     0
 78
     3
 79
     0
140
3.0
141
0.0
142
0.0
143
25.4
144
1.0
145
0.0
146
1.0
147
0.2
148
0.0
170
     0
171
     4
172
     0
173
     0
174
     1
175
     0
176
     1
177
     1
178
     1
179
     4
271
     4
272
     4
273
     2
274
     2
275
     0
276
     0
277
     3
278
    46
279
     0
280
     0
281
     0
282
     0
283
     1
284
     0
285
     0
286
     0
288
     0
289
     3
340
39
341
0
342
0
343
0
344
0
371
    -2
372
    -2
  0
ENDTAB
  0
TABLE
  2
BLOCK_RECORD
  5
1
100
AcDbSymbolTable
 70
     5
  0
BLOCK_RECORD
  5
A
100
AcDbSymbolTableRecord
100
AcDbBlockTableRecord
  2
*MODEL_SPACE
340
20
  0
BLOCK_RECORD
  5
B
100
AcDbSymbolTableRecord
100
AcDbBlockTableRecord
  2
*PAPER_SPACE
340
21
  0
BLOCK_RECORD
  5
32
100
AcDbSymbolTableRecord
100
AcDbBlockTableRecord
  2
_CLOSED
340
0
  0
BLOCK_RECORD
  5
AE
100
AcDbSymbolTableRecord
100
AcDbBlockTableRecord
  2
arrwhead
340
0
102
{BLKREFS
331
B8
102
}
  0
BLOCK_RECORD
  5
220
100
AcDbSymbolTableRecord
100
AcDbBlockTableRecord
  2
DRAPE
340
0
102
{BLKREFS
331
229
331
22A
331
22B
331
22C
331
22D
331
22E
331
22F
331
230
331
231
331
232
331
233
331
234
331
235
331
236
331
237
331
238
331
23C
331
23D
331
23E
331
23F
331
240
331
241
331
242
331
243
331
244
331
245
331
246
331
247
331
248
331
249
331
24A
331
24B
331
24C
331
24D
331
24E
331
24F
331
250
331
251
102
}
  0
BLOCK_RECORD
  5
2BC
100
AcDbSymbolTableRecord
100
AcDbBlockTableRecord
  2
centerline
340
0
102
{BLKREFS
331
310
331
318
102
}
  0
BLOCK_RECORD
  5
319
100
AcDbSymbolTableRecord
100
AcDbBlockTableRecord
  2
etc419
340
0
102
{BLKREFS
331
32B
102
}
  0
ENDTAB
  0
ENDSEC
  0
SECTION
  2
BLOCKS
  0
BLOCK
  5
D
100
AcDbEntity
  8
0
390
0
100
AcDbBlockBegin
  2
*MODEL_SPACE
 70
     0
 10
0.0
 20
0.0
 30
0.0
  3
*MODEL_SPACE
  1

  0
ENDBLK
  5
E
100
AcDbEntity
  8
0
390
0
100
AcDbBlockEnd
  0
BLOCK
  5
F
100
AcDbEntity
 67
     1
  8
0
390
0
100
AcDbBlockBegin
  2
*PAPER_SPACE
 70
     0
 10
0.0
 20
0.0
 30
0.0
  3
*PAPER_SPACE
  1

  0
ENDBLK
  5
10
100
AcDbEntity
 67
     1
  8
0
390
0
100
AcDbBlockEnd
  0
BLOCK
  5
33
100
AcDbEntity
  8
0
390
0
100
AcDbBlockBegin
  2
_CLOSED
 70
     0
 10
0.0
 20
0.0
 30
0.0
  3
_CLOSED
  1

  0
LINE
  5
34
100
AcDbEntity
  8
0
370
    -2
390
0
  6
ByBlock
 62
     0
100
AcDbLine
 10
-1.0
 20
0.166667
 30
0.0
 11
0.0
 21
0.0
 31
0.0
  0
LINE
  5
35
100
AcDbEntity
  8
0
370
    -2
390
0
  6
ByBlock
 62
     0
100
AcDbLine
 10
0.0
 20
0.0
 30
0.0
 11
-1.0
 21
-0.166667
 31
0.0
  0
LINE
  5
36
100
AcDbEntity
  8
0
370
    -2
390
0
  6
ByBlock
 62
     0
100
AcDbLine
 10
-1.0
 20
0.166667
 30
0.0
 11
-1.0
 21
-0.166667
 31
0.0
  0
LINE
  5
37
100
AcDbEntity
  8
0
370
    -2
390
0
  6
ByBlock
 62
     0
100
AcDbLine
 10
0.0
 20
0.0
 30
0.0
 11
-1.0
 21
0.0
 31
0.0
  0
ENDBLK
  5
38
100
AcDbEntity
  8
0
390
0
100
AcDbBlockEnd
  0
BLOCK
  5
AF
100
AcDbEntity
  8
0
390
0
100
AcDbBlockBegin
  2
arrwhead
 70
     0
 10
0.0
 20
0.0
 30
0.0
  3
arrwhead
  1

  0
POLYLINE
  5
B0
100
AcDbEntity
  8
POS-HIDDEN
370
     0
390
0
  6
Continuous
 62
   134
100
AcDb2dPolyline
 66
     1
 10
0.0
 20
0.0
 30
0.0
 70
   129
  0
VERTEX
  5
B1
100
AcDbEntity
  8
POS-HIDDEN
370
     0
390
0
  6
Continuous
 62
   134
100
AcDbVertex
100
AcDb2dVertex
 10
1.0
 20
0.0
 30
0.0
  0
VERTEX
  5
B2
100
AcDbEntity
  8
POS-HIDDEN
370
     0
390
0
  6
Continuous
 62
   134
100
AcDbVertex
100
AcDb2dVertex
 10
0.0
 20
-1.0
 30
0.0
  0
VERTEX
  5
B3
100
AcDbEntity
  8
POS-HIDDEN
370
     0
390
0
  6
Continuous
 62
   134
100
AcDbVertex
100
AcDb2dVertex
 10
0.0
 20
1.0
 30
0.0
  0
VERTEX
  5
B4
100
AcDbEntity
  8
POS-HIDDEN
370
     0
390
0
  6
Continuous
 62
   134
100
AcDbVertex
100
AcDb2dVertex
 10
1.0
 20
0.0
 30
0.0
  0
SEQEND
  5
B5
100
AcDbEntity
  8
POS-HIDDEN
370
     0
390
0
  6
Continuous
 62
   134
  0
HATCH
  5
B6
100
AcDbEntity
  8
POS-HIDDEN
370
     0
390
0
  6
Continuous
 62
   134
100
AcDbHatch
 10
0.0
 20
0.0
 30
0.0
210
0.0
220
0.0
230
1.0
  2
SOLID
 70
     1
 71
     0
 91
        1
 92
        1
 93
        3
 72
     1
 10
1.0
 20
0.0
 11
0.0
 21
-1.0
 72
     1
 10
0.0
 20
-1.0
 11
0.0
 21
1.0
 72
     1
 10
0.0
 20
1.0
 11
1.0
 21
0.0
 97
        0
 75
     0
 76
     1
 98
        1
 10
0.0
 20
0.0
  0
ENDBLK
  5
B7
100
AcDbEntity
  8
0
390
0
100
AcDbBlockEnd
  0
BLOCK
  5
221
100
AcDbEntity
  8
0
390
0
100
AcDbBlockBegin
  2
DRAPE
 70
     0
 10
0.0
 20
0.0
 30
0.0
  3
DRAPE
  1

  0
ARC
  5
222
100
AcDbEntity
  8
0
370
     0
390
0
  6
Continuous
 62
   134
100
AcDbCircle
 10
0.0
 20
1.0
 30
0.0
 40
1.0
100
AcDbArc
 50
270.0
 51
450.0
  0
ARC
  5
223
100
AcDbEntity
  8
0
370
     0
390
0
  6
Continuous
 62
   134
100
AcDbCircle
 10
0.0
 20
-1.0
 30
0.0
 40
1.0
100
AcDbArc
 50
90.0
 51
270.0
  0
ARC
  5
224
100
AcDbEntity
  8
0
370
     0
390
0
  6
Continuous
 62
   134
100
AcDbCircle
 10
0.0
 20
-3.0
 30
0.0
 40
1.0
100
AcDbArc
 50
270.0
 51
450.0
  0
ARC
  5
225
100
AcDbEntity
  8
0
370
     0
390
0
  6
Continuous
 62
   134
100
AcDbCircle
 10
0.0
 20
3.0
 30
0.0
 40
1.0
100
AcDbArc
 50
90.0
 51
270.0
  0
ARC
  5
226
100
AcDbEntity
  8
0
370
     0
390
0
  6
Continuous
 62
   134
100
AcDbCircle
 10
0.0
 20
-5.0
 30
0.0
 40
1.0
100
AcDbArc
 50
90.0
 51
270.0
  0
ARC
  5
227
100
AcDbEntity
  8
0
370
     0
390
0
  6
Continuous
 62
   134
100
AcDbCircle
 10
0.0
 20
5.0
 30
0.0
 40
1.0
100
AcDbArc
 50
270.0
 51
450.0
  0
ENDBLK
  5
228
100
AcDbEntity
  8
0
390
0
100
AcDbBlockEnd
  0
BLOCK
  5
2BD
100
AcDbEntity
  8
0
390
0
100
AcDbBlockBegin
  2
centerline
 70
     0
 10
0.0
 20
0.0
 30
0.0
  3
centerline
  1

  0
HATCH
  5
2BE
100
AcDbEntity
  8
TITLE BLOCK
370
     0
390
0
  6
Continuous
 62
   134
100
AcDbHatch
 10
0.0
 20
0.0
 30
0.0
210
0.0
220
0.0
230
1.0
  2
DOTS
 70
     0
 71
     0
 91
        1
 92
        1
 93
        7
 72
     1
 10
3.867594295181334
 20
6.4058444127440453
 11
4.906555705703795
 21
7.0551950335502625
 72
     1
 10
4.6143475109711289
 20
8.4350652098655701
 11
4.5007112557068467
 21
8.4350652098655701
 72
     1
 10
4.5007112557068467
 20
8.4350652098655701
 11
4.0514704519882798
 21
7.7292797565460205
 72
     1
 10
4.0514704519882798
 20
7.7292797565460205
 11
3.4779837662354112
 21
7.1201301217079163
 72
     1
 10
3.4779837662354112
 20
7.1201301217079163
 11
2.8150835568085313
 21
6.6538248062133789
 72
     1
 10
2.8150835568085313
 20
6.6538248062133789
 11
2.0818796688690782
 21
6.3084418177604675
 72
     1
 10
4.3059053951874375
 20
13.61363685131073
 11
4.8740866715088487
 21
14.993507027626038
 97
        0
 75
     0
 76
     1
 52
0.0
 41
12.0
 77
     0
 78
     1
 53
0.0
 43
0.0
 44
0.0
 45
0.3744
 46
0.75
 79
     2
 49
0.0
 49
-0.75
 98
        1
 10
0.0
 20
0.0
  0
HATCH
  5
2BF
100
AcDbEntity
  8
TITLE BLOCK
370
     0
390
0
  6
Continuous
 62
    14
100
AcDbHatch
 10
0.0
 20
0.0
 30
0.0
210
0.0
220
0.0
230
1.0
  2
DOTS
 70
     0
 71
     0
 91
        1
 92
        1
 93
       26
 72
     1
 10
-2.0041587855666876
 20
10.766233921051025
 11
-1.4684445317834616
 21
10.392857313156128
 72
     1
 10
-1.338574355468154
 20
9.8733766078948975
 11
-1.338574355468154
 21
8.0551947355270386
 72
     1
 10
-1.338574355468154
 20
8.0551947355270386
 11
-1.338574355468154
 21
6.2207789421081543
 72
     1
 10
-1.338574355468154
 20
6.2207789421081543
 11
-1.338574355468154
 21
4.4025970697402954
 72
     1
 10
-1.338574355468154
 20
4.4025970697402954
 11
-1.338574355468154
 21
2.5681814253330231
 72
     1
 10
-2.5236392859369516
 20
0.7824671412818134
 11
-0.6080549117177725
 21
0.7824671412818134
 72
     1
 10
-0.6080549117177725
 20
0.7824671412818134
 11
1.3237633649259806
 21
0.7824671412818134
 72
     1
 10
1.3237633649259806
 20
0.7824671412818134
 11
3.2393475715070963
 21
0.7824671412818134
 72
     1
 10
3.2393475715070963
 20
0.7824671412818134
 11
5.1711656991392374
 21
0.7824671412818134
 72
     1
 10
5.1711656991392374
 20
0.7824671412818134
 11
7.0867499057203531
 21
0.7824671412818134
 72
     1
 10
7.0867499057203531
 20
0.7824671412818134
 11
7.4114253465086222
 21
1.8376619815826416
 72
     1
 10
7.4114253465086222
 20
1.8376619815826416
 11
7.7361001912504435
 21
2.9090904891490936
 72
     1
 10
7.7361001912504435
 20
2.9090904891490936
 11
7.5899960938841105
 21
2.9090904891490936
 72
     1
 10
7.5899960938841105
 20
2.9090904891490936
 11
7.1192171517759562
 21
2.4383112490177155
 72
     1
 10
3.9049311820417643
 20
1.2857138440012932
 11
2.5575288478285074
 21
1.2857138440012932
 72
     1
 10
2.5575288478285074
 20
1.2857138440012932
 11
1.2101262155920267
 21
1.2857138440012932
 72
     1
 10
0.0250613037496805
 20
2.7142852246761322
 11
0.0250613037496805
 21
4.3051944375038147
 72
     1
 10
0.0250613037496805
 20
4.3051944375038147
 11
0.0250613037496805
 21
5.9123374223709106
 72
     1
 10
0.0250613037496805
 20
5.9123374223709106
 11
0.0250613037496805
 21
7.5032467842102051
 72
     1
 10
0.0250613037496805
 20
7.5032467842102051
 11
0.0250613037496805
 21
9.1103894710540771
 72
     1
 10
0.0250613037496805
 20
9.1103894710540771
 11
0.0899963919073343
 21
9.8733766078948975
 72
     1
 10
0.4309054557234049
 20
10.555194735527039
 11
0.93415223993361
 21
10.766233921051025
 72
     1
 10
0.93415223993361
 20
10.766233921051025
 11
0.93415223993361
 21
10.896104097366333
 72
     1
 10
0.93415223993361
 20
10.896104097366333
 11
-0.5755879636853933
 21
10.896104097366333
 72
     1
 10
-0.5755879636853933
 20
10.896104097366333
 11
-2.0853282045572996
 21
10.896104097366333
 72
     1
 10
-2.0853282045572996
 20
10.896104097366333
 11
-2.0041587855666876
 21
10.766233921051025
 97
        0
 75
     0
 76
     1
 52
0.0
 41
12.0
 77
     0
 78
     1
 53
0.0
 43
0.0
 44
0.0
 45
0.3744
 46
0.75
 79
     2
 49
0.0
 49
-0.75
 98
        1
 10
0.0
 20
0.0
  0
ARC
  5
2C0
100
AcDbEntity
  8
TITLE BLOCK
370
     0
390
0
  6
Continuous
 62
   174
100
AcDbCircle
 10
0.38129
 20
11.161513
 30
0.0
 40
5.537903
100
AcDbArc
 50
195.46251
 51
209.880178
  0
ARC
  5
2C1
100
AcDbEntity
  8
TITLE BLOCK
370
     0
390
0
  6
Continuous
 62
   174
100
AcDbCircle
 10
0.280833
 20
11.06466
 30
0.0
 40
5.415669
100
AcDbArc
 50
180.340583
 51
194.75826
  0
ARC
  5
2C2
100
AcDbEntity
  8
TITLE BLOCK
370
     0
390
0
  6
Continuous
 62
   174
100
AcDbCircle
 10
0.745656
 20
10.939622
 30
0.0
 40
5.881129
100
AcDbArc
 50
166.476044
 51
179.095429
  0
ARC
  5
2C3
100
AcDbEntity
  8
TITLE BLOCK
370
     0
390
0
  6
Continuous
 62
   174
100
AcDbCircle
 10
3.282975
 20
10.066169
 30
0.0
 40
8.556179
100
AcDbArc
 50
155.744006
 51
164.762326
  0
HATCH
  5
2C4
100
AcDbEntity
  8
TITLE BLOCK
370
     0
390
0
  6
Continuous
 62
    14
100
AcDbHatch
 10
0.0
 20
0.0
 30
0.0
210
0.0
220
0.0
230
1.0
  2
DOTS
 70
     0
 71
     0
 91
        1
 92
        1
 93
       26
 72
     1
 10
-1.4285708218812943
 20
10.766233921051025
 11
-0.8928565680980682
 21
10.392857313156128
 72
     1
 10
-0.7629863917827606
 20
9.8733766078948975
 11
-0.7629863917827606
 21
8.0551947355270386
 72
     1
 10
-0.7629863917827606
 20
8.0551947355270386
 11
-0.7629863917827606
 21
6.2207789421081543
 72
     1
 10
-0.7629863917827606
 20
6.2207789421081543
 11
-0.7629863917827606
 21
4.4025970697402954
 72
     1
 10
-0.7629863917827606
 20
4.4025970697402954
 11
-0.7629863917827606
 21
2.5681814253330231
 72
     1
 10
-1.9480513222515583
 20
0.7824671412818134
 11
-0.0324669480323792
 21
0.7824671412818134
 72
     1
 10
-0.0324669480323792
 20
0.7824671412818134
 11
1.8993513286113739
 21
0.7824671412818134
 72
     1
 10
1.8993513286113739
 20
0.7824671412818134
 11
3.8149355351924896
 21
0.7824671412818134
 72
     1
 10
3.8149355351924896
 20
0.7824671412818134
 11
5.7467536628246307
 21
0.7824671412818134
 72
     1
 10
5.7467536628246307
 20
0.7824671412818134
 11
7.6623378694057465
 21
0.7824671412818134
 72
     1
 10
7.6623378694057465
 20
0.7824671412818134
 11
7.9870133101940155
 21
1.8376619815826416
 72
     1
 10
7.9870133101940155
 20
1.8376619815826416
 11
8.3116881549358368
 21
2.9090904891490936
 72
     1
 10
8.3116881549358368
 20
2.9090904891490936
 11
8.1655840575695038
 21
2.9090904891490936
 72
     1
 10
8.1655840575695038
 20
2.9090904891490936
 11
7.6948051154613495
 21
2.4383112490177155
 72
     1
 10
4.4805191457271576
 20
1.2857138440012932
 11
3.1331168115139008
 21
1.2857138440012932
 72
     1
 10
3.1331168115139008
 20
1.2857138440012932
 11
1.78571417927742
 21
1.2857138440012932
 72
     1
 10
0.6006492674350739
 20
2.7142852246761322
 11
0.6006492674350739
 21
4.3051944375038147
 72
     1
 10
0.6006492674350739
 20
4.3051944375038147
 11
0.6006492674350739
 21
5.9123374223709106
 72
     1
 10
0.6006492674350739
 20
5.9123374223709106
 11
0.6006492674350739
 21
7.5032467842102051
 72
     1
 10
0.6006492674350739
 20
7.5032467842102051
 11
0.6006492674350739
 21
9.1103894710540771
 72
     1
 10
0.6006492674350739
 20
9.1103894710540771
 11
0.6655843555927277
 21
9.8733766078948975
 72
     1
 10
1.0064934194087982
 20
10.555194735527039
 11
1.5097402036190033
 21
10.766233921051025
 72
     1
 10
1.5097402036190033
 20
10.766233921051025
 11
1.5097402036190033
 21
10.896104097366333
 72
     1
 10
1.5097402036190033
 20
10.896104097366333
 11
0.0
 21
10.896104097366333
 72
     1
 10
0.0
 20
10.896104097366333
 11
-1.5097402408719063
 21
10.896104097366333
 72
     1
 10
-1.5097402408719063
 20
10.896104097366333
 11
-1.4285708218812943
 21
10.766233921051025
 97
        0
 75
     0
 76
     1
 52
0.0
 41
96.0
 77
     0
 78
     1
 53
0.0
 43
0.0
 44
0.0
 45
2.9951999999999996
 46
6.0
 79
     2
 49
0.0
 49
-6.0
 98
        1
 10
0.0
 20
0.0
  0
ARC
  5
2C5
100
AcDbEntity
  8
TITLE BLOCK
370
     0
390
0
  6
Continuous
 62
   174
100
AcDbCircle
 10
0.843702
 20
9.340589
 30
0.0
 40
7.135678
100
AcDbArc
 50
94.471854
 51
110.685984
  0
ARC
  5
2C6
100
AcDbEntity
  8
TITLE BLOCK
370
     0
390
0
  6
Continuous
 62
   174
100
AcDbCircle
 10
0.644067
 20
10.450054
 30
0.0
 40
6.03071
100
AcDbArc
 50
112.635414
 51
130.644145
  0
ARC
  5
2C7
100
AcDbEntity
  8
TITLE BLOCK
370
     0
390
0
  6
Continuous
 62
   174
100
AcDbCircle
 10
1.170375
 20
9.972982
 30
0.0
 40
6.736097
100
AcDbArc
 50
131.397791
 51
147.612026
  0
ARC
  5
2C8
100
AcDbEntity
  8
TITLE BLOCK
370
     0
390
0
  6
Continuous
 62
   174
100
AcDbCircle
 10
0.604765
 20
11.934311
 30
0.0
 40
6.142136
100
AcDbArc
 50
215.099461
 51
234.900536
  0
ARC
  5
2C9
100
AcDbEntity
  8
TITLE BLOCK
370
     0
390
0
  6
Continuous
 62
   174
100
AcDbCircle
 10
0.661959
 20
12.326404
 30
0.0
 40
6.498272
100
AcDbArc
 50
236.475993
 51
254.484723
  0
ARC
  5
2CA
100
AcDbEntity
  8
TITLE BLOCK
370
     0
390
0
  6
Continuous
 62
   174
100
AcDbCircle
 10
1.045472
 20
14.076811
 30
0.0
 40
8.288067
100
AcDbArc
 50
255.16697
 51
269.584645
  0
ARC
  5
2CB
100
AcDbEntity
  8
TITLE BLOCK
370
     0
390
0
  6
Continuous
 62
   174
100
AcDbCircle
 10
0.840883
 20
17.088924
 30
0.0
 40
11.300887
100
AcDbArc
 50
270.732673
 51
279.750966
  0
ARC
  5
2CC
100
AcDbEntity
  8
TITLE BLOCK
370
     0
390
0
  6
Continuous
 62
   174
100
AcDbCircle
 10
0.717146
 20
16.882699
 30
0.0
 40
11.119705
100
AcDbArc
 50
280.559324
 51
289.577652
  0
LINE
  5
2CD
100
AcDbEntity
  8
TITLE BLOCK
370
     0
390
0
  6
Continuous
 62
   174
100
AcDbLine
 10
4.443182
 20
6.405844
 30
0.0
 11
5.482144
 21
7.055195
 31
0.0
  0
ARC
  5
2CE
100
AcDbEntity
  8
TITLE BLOCK
370
     0
390
0
  6
Continuous
 62
   174
100
AcDbCircle
 10
-3.412482
 20
5.892499
 30
0.0
 40
8.970297
100
AcDbArc
 50
7.447413
 51
16.465787
  0
ARC
  5
2CF
100
AcDbEntity
  8
TITLE BLOCK
370
     0
390
0
  6
Continuous
 62
   174
100
AcDbCircle
 10
1.079543
 20
10.68145
 30
0.0
 40
4.648984
100
AcDbArc
 50
270.040042
 51
289.841102
  0
ARC
  5
2D0
100
AcDbEntity
  8
TITLE BLOCK
370
     0
390
0
  6
Continuous
 62
   174
100
AcDbCircle
 10
1.090003
 20
10.62191
 30
0.0
 40
4.589448
100
AcDbArc
 50
248.318962
 51
269.909983
  0
ARC
  5
2D1
100
AcDbEntity
  8
TITLE BLOCK
370
     0
390
0
  6
Continuous
 62
   174
100
AcDbCircle
 10
1.236279
 20
10.811129
 30
0.0
 40
4.819773
100
AcDbArc
 50
225.943067
 51
247.534076
  0
ARC
  5
2D2
100
AcDbEntity
  8
TITLE BLOCK
370
     0
390
0
  6
Continuous
 62
   174
100
AcDbCircle
 10
1.920066
 20
10.94028
 30
0.0
 40
5.40302
100
AcDbArc
 50
200.089433
 51
221.680465
  0
ARC
  5
2D3
100
AcDbEntity
  8
TITLE BLOCK
370
     0
390
0
  6
Continuous
 62
   174
100
AcDbCircle
 10
2.480346
 20
11.122138
 30
0.0
 40
5.991716
100
AcDbArc
 50
180.081297
 51
199.882358
  0
ARC
  5
2D4
100
AcDbEntity
  8
TITLE BLOCK
370
     0
390
0
  6
Continuous
 62
   174
100
AcDbCircle
 10
2.650432
 20
11.119303
 30
0.0
 40
6.161799
100
AcDbArc
 50
163.838482
 51
180.05269
  0
ARC
  5
2D5
100
AcDbEntity
  8
TITLE BLOCK
370
     0
390
0
  6
Continuous
 62
   174
100
AcDbCircle
 10
2.074123
 20
11.265508
 30
0.0
 40
5.567605
100
AcDbArc
 50
145.62407
 51
163.632803
  0
ARC
  5
2D6
100
AcDbEntity
  8
TITLE BLOCK
370
     0
390
0
  6
Continuous
 62
   174
100
AcDbCircle
 10
1.237725
 20
11.81711
 30
0.0
 40
4.56587
100
AcDbArc
 50
123.819988
 51
145.410959
  0
ARC
  5
2D7
100
AcDbEntity
  8
TITLE BLOCK
370
     0
390
0
  6
Continuous
 62
   174
100
AcDbCircle
 10
0.900603
 20
11.586106
 30
0.0
 40
4.588382
100
AcDbArc
 50
104.292524
 51
118.710328
  0
ARC
  5
2D8
100
AcDbEntity
  8
TITLE BLOCK
370
     0
390
0
  6
Continuous
 62
   174
100
AcDbCircle
 10
0.988618
 20
11.040188
 30
0.0
 40
5.139369
100
AcDbArc
 50
91.121952
 51
103.740884
  0
ARC
  5
2D9
100
AcDbEntity
  8
TITLE BLOCK
370
     0
390
0
  6
Continuous
 62
   174
100
AcDbCircle
 10
0.886928
 20
11.242406
 30
0.0
 40
4.936166
100
AcDbArc
 50
70.186799
 51
89.987709
  0
ARC
  5
2DA
100
AcDbEntity
  8
TITLE BLOCK
370
     0
390
0
  6
Continuous
 62
   174
100
AcDbCircle
 10
0.97566
 20
11.702038
 30
0.0
 40
4.474251
100
AcDbArc
 50
47.669704
 51
69.260709
  0
ARC
  5
2DB
100
AcDbEntity
  8
TITLE BLOCK
370
     0
390
0
  6
Continuous
 62
   174
100
AcDbCircle
 10
1.708644
 20
12.568048
 30
0.0
 40
3.340693
100
AcDbArc
 50
18.239254
 51
46.961415
  0
LINE
  5
2DC
100
AcDbEntity
  8
TITLE BLOCK
370
     0
390
0
  6
Continuous
 62
   174
100
AcDbLine
 10
4.881493
 20
13.613637
 30
0.0
 11
5.449675
 21
14.993507
 31
0.0
  0
ARC
  5
2DD
100
AcDbEntity
  8
TITLE BLOCK
370
     0
390
0
  6
Continuous
 62
   174
100
AcDbCircle
 10
3.876469
 20
13.931982
 30
0.0
 40
1.897844
100
AcDbArc
 50
34.009632
 51
59.172621
  0
ARC
  5
2DE
100
AcDbEntity
  8
TITLE BLOCK
370
     0
390
0
  6
Continuous
 62
   174
100
AcDbCircle
 10
4.277212
 20
14.384381
 30
0.0
 40
1.308826
100
AcDbArc
 50
64.094341
 51
69.50855
  0
ARC
  5
2DF
100
AcDbEntity
  8
TITLE BLOCK
370
     0
390
0
  6
Continuous
 62
   174
100
AcDbCircle
 10
-0.21207
 20
4.090734
 30
0.0
 40
12.537138
100
AcDbArc
 50
66.757457
 51
75.775847
  0
ARC
  5
2E0
100
AcDbEntity
  8
TITLE BLOCK
370
     0
390
0
  6
Continuous
 62
   174
100
AcDbCircle
 10
0.809598
 20
7.703144
 30
0.0
 40
8.785038
100
AcDbArc
 50
76.445786
 51
89.065202
  0
ARC
  5
2E1
100
AcDbEntity
  8
TITLE BLOCK
370
     0
390
0
  6
Continuous
 62
   174
100
AcDbCircle
 10
1.048182
 20
11.32698
 30
0.0
 40
5.160912
100
AcDbArc
 50
91.057629
 51
94.667234
  0
ARC
  5
2E2
100
AcDbEntity
  8
TITLE BLOCK
370
     0
390
0
  6
Continuous
 62
   174
100
AcDbCircle
 10
0.200165
 20
21.872772
 30
0.0
 40
5.418929
100
AcDbArc
 50
270.921731
 51
274.530938
  0
LINE
  5
2E3
100
AcDbEntity
  8
TITLE BLOCK
370
     0
390
0
  6
Continuous
 62
   174
100
AcDbLine
 10
-1.428571
 20
10.766234
 30
0.0
 11
-0.892857
 21
10.392857
 31
0.0
  0
ARC
  5
2E4
100
AcDbEntity
  8
TITLE BLOCK
370
     0
390
0
  6
Continuous
 62
   174
100
AcDbCircle
 10
-2.095411
 20
9.883781
 30
0.0
 40
1.30587
100
AcDbArc
 50
13.925531
 51
22.944367
  0
ARC
  5
2E5
100
AcDbEntity
  8
TITLE BLOCK
370
     0
390
0
  6
Continuous
 62
   174
100
AcDbCircle
 10
-5.94835
 20
9.005135
 30
0.0
 40
5.257551
100
AcDbArc
 50
9.505473
 51
13.114392
  0
ARC
  5
2E6
100
AcDbEntity
  8
TITLE BLOCK
370
     0
390
0
  6
Continuous
 62
   174
100
AcDbCircle
 10
-2.632322
 20
2.522657
 30
0.0
 40
1.86989
100
AcDbArc
 50
291.465545
 51
361.395058
  0
LINE
  5
2E7
100
AcDbEntity
  8
TITLE BLOCK
370
     0
390
0
  6
Continuous
 62
   174
100
AcDbLine
 10
8.165584
 20
2.90909
 30
0.0
 11
7.694805
 21
2.438311
 31
0.0
  0
ARC
  5
2E8
100
AcDbEntity
  8
TITLE BLOCK
370
     0
390
0
  6
Continuous
 62
   174
100
AcDbCircle
 10
4.811514
 20
5.99133
 30
0.0
 40
4.57573
100
AcDbArc
 50
287.468516
 51
309.059489
  0
ARC
  5
2E9
100
AcDbEntity
  8
TITLE BLOCK
370
     0
390
0
  6
Continuous
 62
   174
100
AcDbCircle
 10
3.532845
 20
10.455901
 30
0.0
 40
9.219025
100
AcDbArc
 50
275.900167
 51
286.719697
  0
ARC
  5
2EA
100
AcDbEntity
  8
TITLE BLOCK
370
     0
390
0
  6
Continuous
 62
   174
100
AcDbCircle
 10
2.635822
 20
6.250418
 30
0.0
 40
5.03696
100
AcDbArc
 50
253.067476
 51
260.283456
  0
ARC
  5
2EB
100
AcDbEntity
  8
TITLE BLOCK
370
     0
390
0
  6
Continuous
 62
   174
100
AcDbCircle
 10
3.237016
 20
3.115199
 30
0.0
 40
2.666676
100
AcDbArc
 50
188.646759
 51
219.14357
  0
ARC
  5
2EC
100
AcDbEntity
  8
TITLE BLOCK
370
     0
390
0
  6
Continuous
 62
   174
100
AcDbCircle
 10
3.531296
 20
8.866657
 30
0.0
 40
3.037398
100
AcDbArc
 50
146.226183
 51
160.643714
  0
LINE
  5
2ED
100
AcDbEntity
  8
TITLE BLOCK
370
     0
390
0
  6
Continuous
 62
   174
100
AcDbLine
 10
1.006493
 20
10.555195
 30
0.0
 11
1.50974
 21
10.766234
 31
0.0
  0
LINE
  5
2EE
100
AcDbEntity
  8
TITLE BLOCK
370
     0
390
0
  6
Continuous
 62
   174
100
AcDbLine
 10
-0.762986
 20
9.873377
 30
0.0
 11
-0.762986
 21
8.055195
 31
0.0
  0
LINE
  5
2EF
100
AcDbEntity
  8
TITLE BLOCK
370
     0
390
0
  6
Continuous
 62
   174
100
AcDbLine
 10
-0.762986
 20
8.055195
 30
0.0
 11
-0.762986
 21
6.220779
 31
0.0
  0
LINE
  5
2F0
100
AcDbEntity
  8
TITLE BLOCK
370
     0
390
0
  6
Continuous
 62
   174
100
AcDbLine
 10
-0.762986
 20
6.220779
 30
0.0
 11
-0.762986
 21
4.402597
 31
0.0
  0
LINE
  5
2F1
100
AcDbEntity
  8
TITLE BLOCK
370
     0
390
0
  6
Continuous
 62
   174
100
AcDbLine
 10
-0.762986
 20
4.402597
 30
0.0
 11
-0.762986
 21
2.568181
 31
0.0
  0
LINE
  5
2F2
100
AcDbEntity
  8
TITLE BLOCK
370
     0
390
0
  6
Continuous
 62
   174
100
AcDbLine
 10
-1.948051
 20
0.782467
 30
0.0
 11
-0.032467
 21
0.782467
 31
0.0
  0
LINE
  5
2F3
100
AcDbEntity
  8
TITLE BLOCK
370
     0
390
0
  6
Continuous
 62
   174
100
AcDbLine
 10
-0.032467
 20
0.782467
 30
0.0
 11
1.899351
 21
0.782467
 31
0.0
  0
LINE
  5
2F4
100
AcDbEntity
  8
TITLE BLOCK
370
     0
390
0
  6
Continuous
 62
   174
100
AcDbLine
 10
1.899351
 20
0.782467
 30
0.0
 11
3.814936
 21
0.782467
 31
0.0
  0
LINE
  5
2F5
100
AcDbEntity
  8
TITLE BLOCK
370
     0
390
0
  6
Continuous
 62
   174
100
AcDbLine
 10
3.814936
 20
0.782467
 30
0.0
 11
5.746754
 21
0.782467
 31
0.0
  0
LINE
  5
2F6
100
AcDbEntity
  8
TITLE BLOCK
370
     0
390
0
  6
Continuous
 62
   174
100
AcDbLine
 10
5.746754
 20
0.782467
 30
0.0
 11
7.662338
 21
0.782467
 31
0.0
  0
LINE
  5
2F7
100
AcDbEntity
  8
TITLE BLOCK
370
     0
390
0
  6
Continuous
 62
   174
100
AcDbLine
 10
7.662338
 20
0.782467
 30
0.0
 11
7.987013
 21
1.837662
 31
0.0
  0
LINE
  5
2F8
100
AcDbEntity
  8
TITLE BLOCK
370
     0
390
0
  6
Continuous
 62
   174
100
AcDbLine
 10
7.987013
 20
1.837662
 30
0.0
 11
8.311688
 21
2.90909
 31
0.0
  0
LINE
  5
2F9
100
AcDbEntity
  8
TITLE BLOCK
370
     0
390
0
  6
Continuous
 62
   174
100
AcDbLine
 10
8.311688
 20
2.90909
 30
0.0
 11
8.165584
 21
2.90909
 31
0.0
  0
LINE
  5
2FA
100
AcDbEntity
  8
TITLE BLOCK
370
     0
390
0
  6
Continuous
 62
   174
100
AcDbLine
 10
4.480519
 20
1.285714
 30
0.0
 11
3.133117
 21
1.285714
 31
0.0
  0
LINE
  5
2FB
100
AcDbEntity
  8
TITLE BLOCK
370
     0
390
0
  6
Continuous
 62
   174
100
AcDbLine
 10
3.133117
 20
1.285714
 30
0.0
 11
1.785714
 21
1.285714
 31
0.0
  0
LINE
  5
2FC
100
AcDbEntity
  8
TITLE BLOCK
370
     0
390
0
  6
Continuous
 62
   174
100
AcDbLine
 10
0.600649
 20
2.714285
 30
0.0
 11
0.600649
 21
4.305194
 31
0.0
  0
LINE
  5
2FD
100
AcDbEntity
  8
TITLE BLOCK
370
     0
390
0
  6
Continuous
 62
   174
100
AcDbLine
 10
0.600649
 20
4.305194
 30
0.0
 11
0.600649
 21
5.912337
 31
0.0
  0
LINE
  5
2FE
100
AcDbEntity
  8
TITLE BLOCK
370
     0
390
0
  6
Continuous
 62
   174
100
AcDbLine
 10
0.600649
 20
5.912337
 30
0.0
 11
0.600649
 21
7.503247
 31
0.0
  0
LINE
  5
2FF
100
AcDbEntity
  8
TITLE BLOCK
370
     0
390
0
  6
Continuous
 62
   174
100
AcDbLine
 10
0.600649
 20
7.503247
 30
0.0
 11
0.600649
 21
9.110389
 31
0.0
  0
LINE
  5
300
100
AcDbEntity
  8
TITLE BLOCK
370
     0
390
0
  6
Continuous
 62
   174
100
AcDbLine
 10
0.600649
 20
9.110389
 30
0.0
 11
0.665584
 21
9.873377
 31
0.0
  0
LINE
  5
301
100
AcDbEntity
  8
TITLE BLOCK
370
     0
390
0
  6
Continuous
 62
   174
100
AcDbLine
 10
1.50974
 20
10.766234
 30
0.0
 11
1.50974
 21
10.896104
 31
0.0
  0
LINE
  5
302
100
AcDbEntity
  8
TITLE BLOCK
370
     0
390
0
  6
Continuous
 62
   174
100
AcDbLine
 10
1.50974
 20
10.896104
 30
0.0
 11
0.0
 21
10.896104
 31
0.0
  0
LINE
  5
303
100
AcDbEntity
  8
TITLE BLOCK
370
     0
390
0
  6
Continuous
 62
   174
100
AcDbLine
 10
0.0
 20
10.896104
 30
0.0
 11
-1.50974
 21
10.896104
 31
0.0
  0
POLYLINE
  5
304
100
AcDbEntity
  8
TITLE BLOCK
370
     0
390
0
  6
Continuous
 62
   134
100
AcDb2dPolyline
 66
     1
 10
0.0
 20
0.0
 30
0.0
 70
   128
  0
VERTEX
  5
305
100
AcDbEntity
  8
TITLE BLOCK
370
     0
390
0
  6
Continuous
 62
   134
100
AcDbVertex
100
AcDb2dVertex
 10
2.657468
 20
6.308442
 30
0.0
  0
VERTEX
  5
306
100
AcDbEntity
  8
TITLE BLOCK
370
     0
390
0
  6
Continuous
 62
   134
100
AcDbVertex
100
AcDb2dVertex
 10
3.390672
 20
6.653825
 30
0.0
  0
VERTEX
  5
307
100
AcDbEntity
  8
TITLE BLOCK
370
     0
390
0
  6
Continuous
 62
   134
100
AcDbVertex
100
AcDb2dVertex
 10
4.053572
 20
7.12013
 30
0.0
  0
VERTEX
  5
308
100
AcDbEntity
  8
TITLE BLOCK
370
     0
390
0
  6
Continuous
 62
   134
100
AcDbVertex
100
AcDb2dVertex
 10
4.627058
 20
7.72928
 30
0.0
  0
VERTEX
  5
309
100
AcDbEntity
  8
TITLE BLOCK
370
     0
390
0
  6
Continuous
 62
   134
100
AcDbVertex
100
AcDb2dVertex
 10
5.076299
 20
8.435065
 30
0.0
  0
VERTEX
  5
30A
100
AcDbEntity
  8
TITLE BLOCK
370
     0
390
0
  6
Continuous
 62
   134
100
AcDbVertex
100
AcDb2dVertex
 10
5.189935
 20
8.435065
 30
0.0
  0
SEQEND
  5
30B
100
AcDbEntity
  8
TITLE BLOCK
370
     0
390
0
  6
Continuous
 62
   134
  0
LINE
  5
30C
100
AcDbEntity
  8
TITLE BLOCK
370
     0
390
0
  6
Continuous
 62
   134
100
AcDbLine
 10
-1.50974
 20
10.896104
 30
0.0
 11
-1.428571
 21
10.766234
 31
0.0
  0
HATCH
  5
30D
100
AcDbEntity
  8
TITLE BLOCK
370
     0
390
0
  6
Continuous
 62
     1
100
AcDbHatch
 10
0.0
 20
0.0
 30
0.0
210
0.0
220
0.0
230
1.0
  2
DOTS
 70
     0
 71
     0
 91
        1
 92
        1
 93
        7
 72
     1
 10
4.4431822588667274
 20
6.4058444127440453
 11
5.4821436693891883
 21
7.0551950335502625
 72
     1
 10
5.1899354746565223
 20
8.4350652098655701
 11
5.07629921939224
 21
8.4350652098655701
 72
     1
 10
5.07629921939224
 20
8.4350652098655701
 11
4.6270584156736732
 21
7.7292797565460205
 72
     1
 10
4.6270584156736732
 20
7.7292797565460205
 11
4.0535717299208045
 21
7.1201301217079163
 72
     1
 10
4.0535717299208045
 20
7.1201301217079163
 11
3.3906715204939246
 21
6.6538248062133789
 72
     1
 10
3.3906715204939246
 20
6.6538248062133789
 11
2.6574676325544715
 21
6.3084418177604675
 72
     1
 10
4.8814933588728309
 20
13.61363685131073
 11
5.449674635194242
 21
14.993507027626038
 97
        0
 75
     0
 76
     1
 52
0.0
 41
4.0
 77
     0
 78
     1
 53
0.0
 43
0.0
 44
0.0
 45
0.1248
 46
0.25
 79
     2
 49
0.0
 49
-0.25
 98
        1
 10
0.0
 20
0.0
  0
HATCH
  5
30E
100
AcDbEntity
  8
TITLE BLOCK
370
     0
390
0
  6
Continuous
 62
     1
100
AcDbHatch
 10
0.0
 20
0.0
 30
0.0
210
0.0
220
0.0
230
1.0
  2
DOTS
 70
     0
 71
     0
 91
        1
 92
        1
 93
       26
 72
     1
 10
-1.4285708218812943
 20
10.766233921051025
 11
-0.8928565680980682
 21
10.392857313156128
 72
     1
 10
-0.7629863917827606
 20
9.8733766078948975
 11
-0.7629863917827606
 21
8.0551947355270386
 72
     1
 10
-0.7629863917827606
 20
8.0551947355270386
 11
-0.7629863917827606
 21
6.2207789421081543
 72
     1
 10
-0.7629863917827606
 20
6.2207789421081543
 11
-0.7629863917827606
 21
4.4025970697402954
 72
     1
 10
-0.7629863917827606
 20
4.4025970697402954
 11
-0.7629863917827606
 21
2.5681814253330231
 72
     1
 10
-1.9480513222515583
 20
0.7824671412818134
 11
-0.0324669480323792
 21
0.7824671412818134
 72
     1
 10
-0.0324669480323792
 20
0.7824671412818134
 11
1.8993513286113739
 21
0.7824671412818134
 72
     1
 10
1.8993513286113739
 20
0.7824671412818134
 11
3.8149355351924896
 21
0.7824671412818134
 72
     1
 10
3.8149355351924896
 20
0.7824671412818134
 11
5.7467536628246307
 21
0.7824671412818134
 72
     1
 10
5.7467536628246307
 20
0.7824671412818134
 11
7.6623378694057465
 21
0.7824671412818134
 72
     1
 10
7.6623378694057465
 20
0.7824671412818134
 11
7.9870133101940155
 21
1.8376619815826416
 72
     1
 10
7.9870133101940155
 20
1.8376619815826416
 11
8.3116881549358368
 21
2.9090904891490936
 72
     1
 10
8.3116881549358368
 20
2.9090904891490936
 11
8.1655840575695038
 21
2.9090904891490936
 72
     1
 10
8.1655840575695038
 20
2.9090904891490936
 11
7.6948051154613495
 21
2.4383112490177155
 72
     1
 10
4.4805191457271576
 20
1.2857138440012932
 11
3.1331168115139008
 21
1.2857138440012932
 72
     1
 10
3.1331168115139008
 20
1.2857138440012932
 11
1.78571417927742
 21
1.2857138440012932
 72
     1
 10
0.6006492674350739
 20
2.7142852246761322
 11
0.6006492674350739
 21
4.3051944375038147
 72
     1
 10
0.6006492674350739
 20
4.3051944375038147
 11
0.6006492674350739
 21
5.9123374223709106
 72
     1
 10
0.6006492674350739
 20
5.9123374223709106
 11
0.6006492674350739
 21
7.5032467842102051
 72
     1
 10
0.6006492674350739
 20
7.5032467842102051
 11
0.6006492674350739
 21
9.1103894710540771
 72
     1
 10
0.6006492674350739
 20
9.1103894710540771
 11
0.6655843555927277
 21
9.8733766078948975
 72
     1
 10
1.0064934194087982
 20
10.555194735527039
 11
1.5097402036190033
 21
10.766233921051025
 72
     1
 10
1.5097402036190033
 20
10.766233921051025
 11
1.5097402036190033
 21
10.896104097366333
 72
     1
 10
1.5097402036190033
 20
10.896104097366333
 11
0.0
 21
10.896104097366333
 72
     1
 10
0.0
 20
10.896104097366333
 11
-1.5097402408719063
 21
10.896104097366333
 72
     1
 10
-1.5097402408719063
 20
10.896104097366333
 11
-1.4285708218812943
 21
10.766233921051025
 97
        0
 75
     0
 76
     1
 52
0.0
 41
4.0
 77
     0
 78
     1
 53
0.0
 43
0.0
 44
0.0
 45
0.1248
 46
0.25
 79
     2
 49
0.0
 49
-0.25
 98
        1
 10
0.0
 20
0.0
  0
ENDBLK
  5
30F
100
AcDbEntity
  8
0
390
0
100
AcDbBlockEnd
  0
BLOCK
  5
31A
100
AcDbEntity
  8
0
390
0
100
AcDbBlockBegin
  2
etc419
 70
     0
 10
0.0
 20
0.0
 30
0.0
  3
etc419
  1

  0
LINE
  5
31B
100
AcDbEntity
  8
House Plot LAMPS
370
     0
390
0
  6
Continuous
 62
     5
100
AcDbLine
 10
2.789358
 20
11.243173
 30
0.0
 11
2.789358
 21
3.90984
 31
0.0
  0
LINE
  5
31C
100
AcDbEntity
  8
House Plot LAMPS
370
     0
390
0
  6
Continuous
 62
     5
100
AcDbLine
 10
3.522691
 20
3.176507
 30
0.0
 11
3.522691
 21
-4.89016
 31
0.0
  0
LINE
  5
31D
100
AcDbEntity
  8
House Plot LAMPS
370
     0
390
0
  6
Continuous
 62
     5
100
AcDbLine
 10
-3.810642
 20
3.176507
 30
0.0
 11
-3.810642
 21
-4.89016
 31
0.0
  0
LINE
  5
31E
100
AcDbEntity
  8
House Plot LAMPS
370
     0
390
0
  6
Continuous
 62
     5
100
AcDbLine
 10
3.522691
 20
12.70984
 30
0.0
 11
2.789358
 21
11.243173
 31
0.0
  0
LINE
  5
31F
100
AcDbEntity
  8
House Plot LAMPS
370
     0
390
0
  6
Continuous
 62
     5
100
AcDbLine
 10
-3.810642
 20
12.70984
 30
0.0
 11
3.522691
 21
12.70984
 31
0.0
  0
LINE
  5
320
100
AcDbEntity
  8
House Plot LAMPS
370
     0
390
0
  6
Continuous
 62
     5
100
AcDbLine
 10
-3.810642
 20
12.70984
 30
0.0
 11
-3.077309
 21
11.243173
 31
0.0
  0
ARC
  5
321
100
AcDbEntity
  8
House Plot LAMPS
370
     0
390
0
  6
Continuous
 62
     5
100
AcDbCircle
 10
-0.143976
 20
-4.89016
 30
0.0
 40
3.666667
100
AcDbArc
 50
180.0
 51
360.0
  0
LINE
  5
322
100
AcDbEntity
  8
House Plot LAMPS
370
     0
390
0
  6
Continuous
 62
     5
100
AcDbLine
 10
2.789358
 20
3.90984
 30
0.0
 11
3.522691
 21
3.176507
 31
0.0
  0
LINE
  5
323
100
AcDbEntity
  8
House Plot LAMPS
370
     0
390
0
  6
Continuous
 62
     5
100
AcDbLine
 10
-3.077309
 20
3.90984
 30
0.0
 11
-3.810642
 21
3.176507
 31
0.0
  0
LINE
  5
324
100
AcDbEntity
  8
House Plot LAMPS
370
     0
390
0
  6
Continuous
 62
     5
100
AcDbLine
 10
1.322691
 20
-9.29016
 30
0.0
 11
-1.610642
 21
-9.29016
 31
0.0
  0
LINE
  5
325
100
AcDbEntity
  8
House Plot LAMPS
370
     0
390
0
  6
Continuous
 62
     5
100
AcDbLine
 10
1.322691
 20
-8.216836
 30
0.0
 11
1.322691
 21
-9.29016
 31
0.0
  0
LINE
  5
326
100
AcDbEntity
  8
House Plot LAMPS
370
     0
390
0
  6
Continuous
 62
     5
100
AcDbLine
 10
-1.610642
 20
-9.29016
 30
0.0
 11
-1.610642
 21
-8.258104
 31
0.0
  0
LINE
  5
327
100
AcDbEntity
  8
House Plot LAMPS
370
     0
390
0
  6
Continuous
 62
     5
100
AcDbLine
 10
-3.077309
 20
11.243173
 30
0.0
 11
-3.077309
 21
3.90984
 31
0.0
  0
TEXT
  5
329
100
AcDbEntity
  8
House Plot LAMPS
370
     0
390
0
  6
Continuous
 62
     5
100
AcDbText
 10
0.011817
 20
7.391486
 30
0.0
 40
3.0
  1
19
 50
90.0
  7
Vcadd_AGATE
 72
     1
 11
1.441103
 21
7.391486
 31
0.0
100
AcDbText
  0
ENDBLK
  5
32A
100
AcDbEntity
  8
0
390
0
100
AcDbBlockEnd
  0
ENDSEC
  0
SECTION
  2
ENTITIES
  0
VIEWPORT
  5
3B
100
AcDbEntity
 67
     1
  8
0
390
0
  6
Continuous
 62
     0
100
AcDbViewport
 10
4.5
 20
3.259162
 30
0.0
 40
12.857143
 41
9.311892
 68
     1
 69
     1
 12
762.9316
 22
546.5183
 13
1169.457242
 23
377.488
 14
0.5
 24
0.5
 15
12.0
 25
12.0
 16
0.0
 26
0.0
 36
1.0
 17
0.0
 27
0.0
 37
0.0
 42
50.0
 43
-55.0
 44
-55.0
 45
1084.5
 50
0.0
 51
0.0
 72
   500
 90
        0
340
0
  1

281
     0
 71
     1
 74
     0
110
0.0
120
0.0
130
0.0
111
1.0
121
0.0
131
0.0
112
0.0
122
1.0
132
0.0
345
0
346
0
 79
     0
146
0.0
  0
ARC
  5
3C
100
AcDbEntity
  8
BORDER
370
     0
390
0
  6
Continuous
 62
   174
100
AcDbCircle
 10
-732.801924
 20
403.55123
 30
0.0
 40
4.5
100
AcDbArc
 50
90.0
 51
180.0
  0
LINE
  5
3D
100
AcDbEntity
  8
BORDER
370
     0
390
0
  6
Continuous
 62
   174
100
AcDbLine
 10
-732.801924
 20
408.05123
 30
0.0
 11
-726.801924
 21
408.05123
 31
0.0
  0
ARC
  5
3E
100
AcDbEntity
  8
BORDER
370
     0
390
0
  6
Continuous
 62
   174
100
AcDbCircle
 10
-726.801924
 20
406.55123
 30
0.0
 40
6.0
100
AcDbArc
 50
90.0
 51
180.0
  0
LINE
  5
3F
100
AcDbEntity
  8
BORDER
370
     0
390
0
  6
Continuous
 62
   174
100
AcDbLine
 10
-732.801924
 20
403.55123
 30
0.0
 11
-732.801924
 21
406.55123
 31
0.0
  0
ARC
  5
40
100
AcDbEntity
  8
BORDER
370
    30
390
0
  6
Continuous
 62
    14
100
AcDbCircle
 10
-732.801924
 20
403.55123
 30
0.0
 40
6.0
100
AcDbArc
 50
90.0
 51
180.0
  0
LINE
  5
41
100
AcDbEntity
  8
BORDER
370
    30
390
0
  6
Continuous
 62
    14
100
AcDbLine
 10
-732.801924
 20
409.55123
 30
0.0
 11
-726.801924
 21
409.55123
 31
0.0
  0
ARC
  5
42
100
AcDbEntity
  8
BORDER
370
    30
390
0
  6
Continuous
 62
    14
100
AcDbCircle
 10
-726.801924
 20
406.55123
 30
0.0
 40
7.5
100
AcDbArc
 50
90.0
 51
180.0
  0
LINE
  5
43
100
AcDbEntity
  8
BORDER
370
    30
390
0
  6
Continuous
 62
    14
100
AcDbLine
 10
-734.301924
 20
403.55123
 30
0.0
 11
-734.301924
 21
406.55123
 31
0.0
  0
ARC
  5
44
100
AcDbEntity
  8
BORDER
370
     0
390
0
  6
Continuous
 62
   174
100
AcDbCircle
 10
-732.801657
 20
-611.864073
 30
0.0
 40
4.5
100
AcDbArc
 50
180.0
 51
270.0
  0
LINE
  5
45
100
AcDbEntity
  8
BORDER
370
     0
390
0
  6
Continuous
 62
   174
100
AcDbLine
 10
-732.801657
 20
-616.364073
 30
0.0
 11
-726.801657
 21
-616.364073
 31
0.0
  0
ARC
  5
46
100
AcDbEntity
  8
BORDER
370
     0
390
0
  6
Continuous
 62
   174
100
AcDbCircle
 10
-726.801657
 20
-614.864073
 30
0.0
 40
6.0
100
AcDbArc
 50
180.0
 51
270.0
  0
LINE
  5
47
100
AcDbEntity
  8
BORDER
370
     0
390
0
  6
Continuous
 62
   174
100
AcDbLine
 10
-732.801657
 20
-611.864073
 30
0.0
 11
-732.801657
 21
-614.864073
 31
0.0
  0
ARC
  5
48
100
AcDbEntity
  8
BORDER
370
    30
390
0
  6
Continuous
 62
    14
100
AcDbCircle
 10
-732.801657
 20
-611.864073
 30
0.0
 40
6.0
100
AcDbArc
 50
180.0
 51
270.0
  0
LINE
  5
49
100
AcDbEntity
  8
BORDER
370
    30
390
0
  6
Continuous
 62
    14
100
AcDbLine
 10
-732.801657
 20
-617.864073
 30
0.0
 11
-726.801657
 21
-617.864073
 31
0.0
  0
ARC
  5
4A
100
AcDbEntity
  8
BORDER
370
    30
390
0
  6
Continuous
 62
    14
100
AcDbCircle
 10
-726.801657
 20
-614.864073
 30
0.0
 40
7.5
100
AcDbArc
 50
180.0
 51
270.0
  0
LINE
  5
4B
100
AcDbEntity
  8
BORDER
370
    30
390
0
  6
Continuous
 62
    14
100
AcDbLine
 10
-734.301657
 20
-611.864073
 30
0.0
 11
-734.301657
 21
-614.864073
 31
0.0
  0
LINE
  5
4C
100
AcDbEntity
  8
BORDER
370
     0
390
0
  6
Continuous
 62
   174
100
AcDbLine
 10
-732.801924
 20
403.55123
 30
0.0
 11
-732.801657
 21
-611.864073
 31
0.0
  0
LINE
  5
4D
100
AcDbEntity
  8
BORDER
370
    30
390
0
  6
Continuous
 62
    14
100
AcDbLine
 10
-734.301924
 20
403.55123
 30
0.0
 11
-734.301657
 21
-611.864073
 31
0.0
  0
LINE
  5
4E
100
AcDbEntity
  8
BORDER
370
     0
390
0
  6
Continuous
 62
   174
100
AcDbLine
 10
-737.301924
 20
403.55123
 30
0.0
 11
-737.301657
 21
-611.864073
 31
0.0
  0
LINE
  5
4F
100
AcDbEntity
  8
BORDER
370
    30
390
0
  6
Continuous
 62
    14
100
AcDbLine
 10
-738.801924
 20
403.55123
 30
0.0
 11
-738.801657
 21
-611.864073
 31
0.0
  0
LINE
  5
50
100
AcDbEntity
  8
0
370
     0
390
0
  6
Continuous
 62
   174
100
AcDbLine
 10
353.198277
 20
370.241668
 30
0.0
 11
353.198277
 21
358.241668
 31
0.0
  0
POLYLINE
  5
51
100
AcDbEntity
  8
0
370
     0
390
0
  6
Continuous
 62
   174
100
AcDb2dPolyline
 66
     1
 10
0.0
 20
0.0
 30
0.0
 70
   128
  0
VERTEX
  5
52
100
AcDbEntity
  8
0
370
     0
390
0
  6
Continuous
 62
   174
100
AcDbVertex
100
AcDb2dVertex
 10
362.198277
 20
364.241668
 30
0.0
  0
VERTEX
  5
53
100
AcDbEntity
  8
0
370
     0
390
0
  6
Continuous
 62
   174
100
AcDbVertex
100
AcDb2dVertex
 10
414.198277
 20
364.241668
 30
0.0
  0
VERTEX
  5
54
100
AcDbEntity
  8
0
370
     0
390
0
  6
Continuous
 62
   174
100
AcDbVertex
100
AcDb2dVertex
 10
414.198277
 20
356.241668
 30
0.0
  0
VERTEX
  5
55
100
AcDbEntity
  8
0
370
     0
390
0
  6
Continuous
 62
   174
100
AcDbVertex
100
AcDb2dVertex
 10
390.198277
 20
356.241668
 30
0.0
  0
VERTEX
  5
56
100
AcDbEntity
  8
0
370
     0
390
0
  6
Continuous
 62
   174
100
AcDbVertex
100
AcDb2dVertex
 10
390.198277
 20
338.241668
 30
0.0
  0
VERTEX
  5
57
100
AcDbEntity
  8
0
370
     0
390
0
  6
Continuous
 62
   174
100
AcDbVertex
100
AcDb2dVertex
 10
372.198277
 20
338.241668
 30
0.0
  0
SEQEND
  5
58
100
AcDbEntity
  8
0
370
     0
390
0
  6
Continuous
 62
   174
  0
LINE
  5
59
100
AcDbEntity
  8
0
370
     0
390
0
  6
Continuous
 62
   174
100
AcDbLine
 10
362.198277
 20
364.241668
 30
0.0
 11
362.198277
 21
358.241668
 31
0.0
  0
LINE
  5
5A
100
AcDbEntity
  8
0
370
     0
390
0
  6
Continuous
 62
   174
100
AcDbLine
 10
362.198277
 20
358.241668
 30
0.0
 11
372.198277
 21
338.241668
 31
0.0
  0
LINE
  5
5B
100
AcDbEntity
  8
0
370
     0
390
0
  6
Continuous
 62
   174
100
AcDbLine
 10
353.198277
 20
370.241668
 30
0.0
 11
422.198277
 21
370.241668
 31
0.0
  0
LINE
  5
5C
100
AcDbEntity
  8
0
370
     0
390
0
  6
Continuous
 62
   174
100
AcDbLine
 10
422.198277
 20
370.241668
 30
0.0
 11
422.198277
 21
340.241668
 31
0.0
  0
LINE
  5
5D
100
AcDbEntity
  8
0
370
     0
390
0
  6
Continuous
 62
   174
100
AcDbLine
 10
367.198277
 20
332.241668
 30
0.0
 11
353.198277
 21
358.241668
 31
0.0
  0
LINE
  5
5E
100
AcDbEntity
  8
0
370
     0
390
0
  6
Continuous
 62
   174
100
AcDbLine
 10
428.198277
 20
340.241668
 30
0.0
 11
428.198277
 21
332.241668
 31
0.0
  0
LINE
  5
5F
100
AcDbEntity
  8
0
370
     0
390
0
  6
Continuous
 62
   174
100
AcDbLine
 10
422.198277
 20
340.241668
 30
0.0
 11
428.198277
 21
340.241668
 31
0.0
  0
LINE
  5
60
100
AcDbEntity
  8
0
370
     0
390
0
  6
Continuous
 62
   174
100
AcDbLine
 10
367.198277
 20
332.241668
 30
0.0
 11
428.198277
 21
332.241668
 31
0.0
  0
HATCH
  5
61
100
AcDbEntity
  8
0
370
     0
390
0
  6
Continuous
 62
    94
100
AcDbHatch
 10
0.0
 20
0.0
 30
0.0
210
0.0
220
0.0
230
1.0
  2
BRICK_STONE
 70
     0
 71
     0
 91
        2
 92
        1
 93
        7
 72
     1
 10
353.19827688276229
 20
370.24166813107581
 11
353.19827688276229
 21
358.24166813107581
 72
     1
 10
353.19827688276229
 20
358.24166813107581
 11
367.19827688276229
 21
332.24166813107581
 72
     1
 10
367.19827688276229
 20
332.24166813107581
 11
428.1982768827624
 21
332.24166813107581
 72
     1
 10
428.1982768827624
 20
332.24166813107581
 11
428.1982768827624
 21
340.24166813107581
 72
     1
 10
428.1982768827624
 20
340.24166813107581
 11
422.19827688276229
 21
340.24166813107581
 72
     1
 10
422.19827688276229
 20
340.24166813107581
 11
422.19827688276229
 21
370.24166813107581
 72
     1
 10
422.19827688276229
 20
370.24166813107581
 11
353.19827688276229
 21
370.24166813107581
 97
        0
 92
        1
 93
        7
 72
     1
 10
362.19827688276229
 20
364.24166813107581
 11
414.19827688276229
 21
364.24166813107581
 72
     1
 10
414.19827688276229
 20
364.24166813107581
 11
414.19827688276229
 21
356.24166813107581
 72
     1
 10
414.19827688276229
 20
356.24166813107581
 11
390.19827688276229
 21
356.24166813107581
 72
     1
 10
390.19827688276229
 20
356.24166813107581
 11
390.19827688276229
 21
338.24166813107581
 72
     1
 10
390.19827688276229
 20
338.24166813107581
 11
372.19827688276229
 21
338.24166813107581
 72
     1
 10
372.19827688276229
 20
338.24166813107581
 11
362.19827688276229
 21
358.24166813107581
 72
     1
 10
362.19827688276229
 20
358.24166813107581
 11
362.19827688276229
 21
364.24166813107581
 97
        0
 75
     0
 76
     1
 52
0.0
 41
6.0
 77
     0
 78
     8
 53
0.0
 43
0.0
 44
0.0
 45
0.0
 46
1.98
 79
     0
 53
90.0
 43
5.4
 44
0.0
 45
-3.0
 46
1.9800000000000004
 79
     2
 49
1.98
 49
-1.98
 53
90.0
 43
4.8
 44
0.0
 45
-3.0
 46
1.9800000000000004
 79
     2
 49
1.98
 49
-1.98
 53
0.0
 43
5.4
 44
0.33
 45
3.0
 46
1.98
 79
     2
 49
-5.4
 49
0.6
 53
0.0
 43
5.4
 44
0.66
 45
3.0
 46
1.98
 79
     2
 49
-5.4
 49
0.6
 53
0.0
 43
5.4
 44
0.99
 45
3.0
 46
1.98
 79
     2
 49
-5.4
 49
0.6
 53
0.0
 43
5.4
 44
1.32
 45
3.0
 46
1.98
 79
     2
 49
-5.4
 49
0.6
 53
0.0
 43
5.4
 44
1.65
 45
3.0
 46
1.98
 79
     2
 49
-5.4
 49
0.6
 98
        1
 10
0.0
 20
0.0
  0
LINE
  5
62
100
AcDbEntity
  8
0
370
     0
390
0
  6
Continuous
 62
   174
100
AcDbLine
 10
-366.801723
 20
370.241668
 30
0.0
 11
-366.801723
 21
358.241668
 31
0.0
  0
POLYLINE
  5
63
100
AcDbEntity
  8
0
370
     0
390
0
  6
Continuous
 62
   174
100
AcDb2dPolyline
 66
     1
 10
0.0
 20
0.0
 30
0.0
 70
   128
  0
VERTEX
  5
64
100
AcDbEntity
  8
0
370
     0
390
0
  6
Continuous
 62
   174
100
AcDbVertex
100
AcDb2dVertex
 10
-375.801723
 20
364.241668
 30
0.0
  0
VERTEX
  5
65
100
AcDbEntity
  8
0
370
     0
390
0
  6
Continuous
 62
   174
100
AcDbVertex
100
AcDb2dVertex
 10
-427.801723
 20
364.241668
 30
0.0
  0
VERTEX
  5
66
100
AcDbEntity
  8
0
370
     0
390
0
  6
Continuous
 62
   174
100
AcDbVertex
100
AcDb2dVertex
 10
-427.801723
 20
356.241668
 30
0.0
  0
VERTEX
  5
67
100
AcDbEntity
  8
0
370
     0
390
0
  6
Continuous
 62
   174
100
AcDbVertex
100
AcDb2dVertex
 10
-403.801723
 20
356.241668
 30
0.0
  0
VERTEX
  5
68
100
AcDbEntity
  8
0
370
     0
390
0
  6
Continuous
 62
   174
100
AcDbVertex
100
AcDb2dVertex
 10
-403.801723
 20
338.241668
 30
0.0
  0
VERTEX
  5
69
100
AcDbEntity
  8
0
370
     0
390
0
  6
Continuous
 62
   174
100
AcDbVertex
100
AcDb2dVertex
 10
-385.801723
 20
338.241668
 30
0.0
  0
SEQEND
  5
6A
100
AcDbEntity
  8
0
370
     0
390
0
  6
Continuous
 62
   174
  0
LINE
  5
6B
100
AcDbEntity
  8
0
370
     0
390
0
  6
Continuous
 62
   174
100
AcDbLine
 10
-375.801723
 20
364.241668
 30
0.0
 11
-375.801723
 21
358.241668
 31
0.0
  0
LINE
  5
6C
100
AcDbEntity
  8
0
370
     0
390
0
  6
Continuous
 62
   174
100
AcDbLine
 10
-375.801723
 20
358.241668
 30
0.0
 11
-385.801723
 21
338.241668
 31
0.0
  0
LINE
  5
6D
100
AcDbEntity
  8
0
370
     0
390
0
  6
Continuous
 62
   174
100
AcDbLine
 10
-366.801723
 20
370.241668
 30
0.0
 11
-435.801723
 21
370.241668
 31
0.0
  0
LINE
  5
6E
100
AcDbEntity
  8
0
370
     0
390
0
  6
Continuous
 62
   174
100
AcDbLine
 10
-435.801723
 20
370.241668
 30
0.0
 11
-435.801723
 21
340.241668
 31
0.0
  0
LINE
  5
6F
100
AcDbEntity
  8
0
370
     0
390
0
  6
Continuous
 62
   174
100
AcDbLine
 10
-380.801723
 20
332.241668
 30
0.0
 11
-366.801723
 21
358.241668
 31
0.0
  0
LINE
  5
70
100
AcDbEntity
  8
0
370
     0
390
0
  6
Continuous
 62
   174
100
AcDbLine
 10
-441.801723
 20
340.241668
 30
0.0
 11
-441.801723
 21
332.241668
 31
0.0
  0
LINE
  5
71
100
AcDbEntity
  8
0
370
     0
390
0
  6
Continuous
 62
   174
100
AcDbLine
 10
-380.801723
 20
332.241668
 30
0.0
 11
-441.801723
 21
332.241668
 31
0.0
  0
HATCH
  5
72
100
AcDbEntity
  8
0
370
     0
390
0
  6
Continuous
 62
    94
100
AcDbHatch
 10
0.0
 20
0.0
 30
0.0
210
0.0
220
0.0
230
1.0
  2
BRICK_STONE
 70
     0
 71
     0
 91
        2
 92
        1
 93
        7
 72
     1
 10
-366.80172311723771
 20
370.24166813107593
 11
-366.80172311723771
 21
358.24166813107593
 72
     1
 10
-366.80172311723771
 20
358.24166813107593
 11
-380.80172311723771
 21
332.24166813107593
 72
     1
 10
-380.80172311723771
 20
332.24166813107593
 11
-441.80172311723783
 21
332.24166813107593
 72
     1
 10
-441.80172311723783
 20
332.24166813107593
 11
-441.80172311723783
 21
340.24166813107593
 72
     1
 10
-441.80172311723783
 20
340.24166813107593
 11
-435.80172311723771
 21
340.24166813107593
 72
     1
 10
-435.80172311723771
 20
340.24166813107593
 11
-435.80172311723771
 21
370.24166813107593
 72
     1
 10
-435.80172311723771
 20
370.24166813107593
 11
-366.80172311723771
 21
370.24166813107593
 97
        0
 92
        1
 93
        7
 72
     1
 10
-375.80172311723771
 20
364.24166813107593
 11
-427.80172311723771
 21
364.24166813107593
 72
     1
 10
-427.80172311723771
 20
364.24166813107593
 11
-427.80172311723771
 21
356.24166813107593
 72
     1
 10
-427.80172311723771
 20
356.24166813107593
 11
-403.80172311723771
 21
356.24166813107593
 72
     1
 10
-403.80172311723771
 20
356.24166813107593
 11
-403.80172311723771
 21
338.24166813107593
 72
     1
 10
-403.80172311723771
 20
338.24166813107593
 11
-385.80172311723771
 21
338.24166813107593
 72
     1
 10
-385.80172311723771
 20
338.24166813107593
 11
-375.80172311723771
 21
358.24166813107593
 72
     1
 10
-375.80172311723771
 20
358.24166813107593
 11
-375.80172311723771
 21
364.24166813107593
 97
        0
 75
     0
 76
     1
 52
0.0
 41
6.0
 77
     0
 78
     8
 53
0.0
 43
0.0
 44
0.0
 45
0.0
 46
1.98
 79
     0
 53
90.0
 43
5.4
 44
0.0
 45
-3.0
 46
1.9800000000000004
 79
     2
 49
1.98
 49
-1.98
 53
90.0
 43
4.8
 44
0.0
 45
-3.0
 46
1.9800000000000004
 79
     2
 49
1.98
 49
-1.98
 53
0.0
 43
5.4
 44
0.33
 45
3.0
 46
1.98
 79
     2
 49
-5.4
 49
0.6
 53
0.0
 43
5.4
 44
0.66
 45
3.0
 46
1.98
 79
     2
 49
-5.4
 49
0.6
 53
0.0
 43
5.4
 44
0.99
 45
3.0
 46
1.98
 79
     2
 49
-5.4
 49
0.6
 53
0.0
 43
5.4
 44
1.32
 45
3.0
 46
1.98
 79
     2
 49
-5.4
 49
0.6
 53
0.0
 43
5.4
 44
1.65
 45
3.0
 46
1.98
 79
     2
 49
-5.4
 49
0.6
 98
        1
 10
0.0
 20
0.0
  0
LINE
  5
73
100
AcDbEntity
  8
0
370
     0
390
0
  6
Continuous
 62
     7
100
AcDbLine
 10
41.198277
 20
308.630816
 30
0.0
 11
41.198277
 21
314.630816
 31
0.0
  0
LINE
  5
74
100
AcDbEntity
  8
0
370
     0
390
0
  6
Continuous
 62
     7
100
AcDbLine
 10
53.198277
 20
308.630816
 30
0.0
 11
53.198277
 21
320.630816
 31
0.0
  0
LINE
  5
75
100
AcDbEntity
  8
0
370
     0
390
0
  6
Continuous
 62
     7
100
AcDbLine
 10
65.198277
 20
308.630816
 30
0.0
 11
65.198277
 21
314.630816
 31
0.0
  0
LINE
  5
76
100
AcDbEntity
  8
0
370
     0
390
0
  6
Continuous
 62
     7
100
AcDbLine
 10
77.198277
 20
308.630816
 30
0.0
 11
77.198277
 21
320.630816
 31
0.0
  0
LINE
  5
77
100
AcDbEntity
  8
0
370
     0
390
0
  6
Continuous
 62
     7
100
AcDbLine
 10
89.198277
 20
308.630816
 30
0.0
 11
89.198277
 21
314.630816
 31
0.0
  0
LINE
  5
78
100
AcDbEntity
  8
0
370
     0
390
0
  6
Continuous
 62
     7
100
AcDbLine
 10
101.198277
 20
308.630816
 30
0.0
 11
101.198277
 21
320.630816
 31
0.0
  0
LINE
  5
79
100
AcDbEntity
  8
0
370
     0
390
0
  6
Continuous
 62
     7
100
AcDbLine
 10
113.198277
 20
308.630816
 30
0.0
 11
113.198277
 21
314.630816
 31
0.0
  0
LINE
  5
7A
100
AcDbEntity
  8
0
370
     0
390
0
  6
Continuous
 62
     7
100
AcDbLine
 10
125.198277
 20
308.630816
 30
0.0
 11
125.198277
 21
320.630816
 31
0.0
  0
LINE
  5
7B
100
AcDbEntity
  8
0
370
     0
390
0
  6
Continuous
 62
     7
100
AcDbLine
 10
137.198277
 20
308.630816
 30
0.0
 11
137.198277
 21
314.630816
 31
0.0
  0
LINE
  5
7C
100
AcDbEntity
  8
0
370
     0
390
0
  6
Continuous
 62
     7
100
AcDbLine
 10
149.198277
 20
308.630816
 30
0.0
 11
149.198277
 21
320.630816
 31
0.0
  0
LINE
  5
7D
100
AcDbEntity
  8
0
370
     0
390
0
  6
Continuous
 62
     7
100
AcDbLine
 10
161.198277
 20
308.630816
 30
0.0
 11
161.198277
 21
314.630816
 31
0.0
  0
LINE
  5
7E
100
AcDbEntity
  8
0
370
     0
390
0
  6
Continuous
 62
     7
100
AcDbLine
 10
173.198277
 20
308.630816
 30
0.0
 11
173.198277
 21
320.630816
 31
0.0
  0
LINE
  5
7F
100
AcDbEntity
  8
0
370
     0
390
0
  6
Continuous
 62
     7
100
AcDbLine
 10
185.198277
 20
308.630816
 30
0.0
 11
185.198277
 21
314.630816
 31
0.0
  0
LINE
  5
80
100
AcDbEntity
  8
0
370
     0
390
0
  6
Continuous
 62
     7
100
AcDbLine
 10
197.198277
 20
308.630816
 30
0.0
 11
197.198277
 21
320.630816
 31
0.0
  0
LINE
  5
81
100
AcDbEntity
  8
0
370
     0
390
0
  6
Continuous
 62
     7
100
AcDbLine
 10
209.198277
 20
308.630816
 30
0.0
 11
209.198277
 21
314.630816
 31
0.0
  0
LINE
  5
82
100
AcDbEntity
  8
0
370
     0
390
0
  6
Continuous
 62
     7
100
AcDbLine
 10
221.198277
 20
308.630816
 30
0.0
 11
221.198277
 21
320.630816
 31
0.0
  0
LINE
  5
83
100
AcDbEntity
  8
0
370
     0
390
0
  6
Continuous
 62
     7
100
AcDbLine
 10
233.198277
 20
308.630816
 30
0.0
 11
233.198277
 21
314.630816
 31
0.0
  0
LINE
  5
84
100
AcDbEntity
  8
0
370
     0
390
0
  6
Continuous
 62
     7
100
AcDbLine
 10
245.198277
 20
308.630816
 30
0.0
 11
245.198277
 21
320.630816
 31
0.0
  0
LINE
  5
85
100
AcDbEntity
  8
0
370
     0
390
0
  6
Continuous
 62
     7
100
AcDbLine
 10
257.198277
 20
308.630816
 30
0.0
 11
257.198277
 21
314.630816
 31
0.0
  0
LINE
  5
86
100
AcDbEntity
  8
0
370
     0
390
0
  6
Continuous
 62
     7
100
AcDbLine
 10
269.198277
 20
308.630816
 30
0.0
 11
269.198277
 21
320.630816
 31
0.0
  0
LINE
  5
87
100
AcDbEntity
  8
0
370
     0
390
0
  6
Continuous
 62
     7
100
AcDbLine
 10
-18.801723
 20
308.630816
 30
0.0
 11
-18.801723
 21
320.630816
 31
0.0
  0
LINE
  5
88
100
AcDbEntity
  8
0
370
     0
390
0
  6
Continuous
 62
     7
100
AcDbLine
 10
-30.801723
 20
308.630816
 30
0.0
 11
-30.801723
 21
314.630816
 31
0.0
  0
LINE
  5
89
100
AcDbEntity
  8
0
370
     0
390
0
  6
Continuous
 62
     7
100
AcDbLine
 10
-42.801723
 20
308.630816
 30
0.0
 11
-42.801723
 21
320.630816
 31
0.0
  0
LINE
  5
8A
100
AcDbEntity
  8
0
370
     0
390
0
  6
Continuous
 62
     7
100
AcDbLine
 10
-54.801723
 20
308.630816
 30
0.0
 11
-54.801723
 21
314.630816
 31
0.0
  0
LINE
  5
8B
100
AcDbEntity
  8
0
370
     0
390
0
  6
Continuous
 62
     7
100
AcDbLine
 10
-66.801723
 20
308.630816
 30
0.0
 11
-66.801723
 21
320.630816
 31
0.0
  0
LINE
  5
8C
100
AcDbEntity
  8
0
370
     0
390
0
  6
Continuous
 62
     7
100
AcDbLine
 10
-78.801723
 20
308.630816
 30
0.0
 11
-78.801723
 21
314.630816
 31
0.0
  0
LINE
  5
8D
100
AcDbEntity
  8
0
370
     0
390
0
  6
Continuous
 62
     7
100
AcDbLine
 10
-90.801723
 20
308.630816
 30
0.0
 11
-90.801723
 21
320.630816
 31
0.0
  0
LINE
  5
8E
100
AcDbEntity
  8
0
370
     0
390
0
  6
Continuous
 62
     7
100
AcDbLine
 10
-102.801723
 20
308.630816
 30
0.0
 11
-102.801723
 21
314.630816
 31
0.0
  0
LINE
  5
8F
100
AcDbEntity
  8
0
370
     0
390
0
  6
Continuous
 62
     7
100
AcDbLine
 10
-114.801723
 20
308.630816
 30
0.0
 11
-114.801723
 21
320.630816
 31
0.0
  0
LINE
  5
90
100
AcDbEntity
  8
0
370
     0
390
0
  6
Continuous
 62
     7
100
AcDbLine
 10
-126.801723
 20
308.630816
 30
0.0
 11
-126.801723
 21
314.630816
 31
0.0
  0
LINE
  5
91
100
AcDbEntity
  8
0
370
     0
390
0
  6
Continuous
 62
     7
100
AcDbLine
 10
-138.801723
 20
308.630816
 30
0.0
 11
-138.801723
 21
320.630816
 31
0.0
  0
LINE
  5
92
100
AcDbEntity
  8
0
370
     0
390
0
  6
Continuous
 62
     7
100
AcDbLine
 10
-150.801723
 20
308.630816
 30
0.0
 11
-150.801723
 21
314.630816
 31
0.0
  0
LINE
  5
93
100
AcDbEntity
  8
0
370
     0
390
0
  6
Continuous
 62
     7
100
AcDbLine
 10
-162.801723
 20
308.630816
 30
0.0
 11
-162.801723
 21
320.630816
 31
0.0
  0
LINE
  5
94
100
AcDbEntity
  8
0
370
     0
390
0
  6
Continuous
 62
     7
100
AcDbLine
 10
-174.801723
 20
308.630816
 30
0.0
 11
-174.801723
 21
314.630816
 31
0.0
  0
LINE
  5
95
100
AcDbEntity
  8
0
370
     0
390
0
  6
Continuous
 62
     7
100
AcDbLine
 10
-186.801723
 20
308.630816
 30
0.0
 11
-186.801723
 21
320.630816
 31
0.0
  0
LINE
  5
96
100
AcDbEntity
  8
0
370
     0
390
0
  6
Continuous
 62
     7
100
AcDbLine
 10
-198.801723
 20
308.630816
 30
0.0
 11
-198.801723
 21
314.630816
 31
0.0
  0
LINE
  5
97
100
AcDbEntity
  8
0
370
     0
390
0
  6
Continuous
 62
     7
100
AcDbLine
 10
-210.801723
 20
308.630816
 30
0.0
 11
-210.801723
 21
320.630816
 31
0.0
  0
LINE
  5
98
100
AcDbEntity
  8
0
370
     0
390
0
  6
Continuous
 62
     7
100
AcDbLine
 10
-222.801723
 20
308.630816
 30
0.0
 11
-222.801723
 21
314.630816
 31
0.0
  0
LINE
  5
99
100
AcDbEntity
  8
0
370
     0
390
0
  6
Continuous
 62
     7
100
AcDbLine
 10
-234.801723
 20
308.630816
 30
0.0
 11
-234.801723
 21
320.630816
 31
0.0
  0
LINE
  5
9A
100
AcDbEntity
  8
0
370
     0
390
0
  6
Continuous
 62
     7
100
AcDbLine
 10
-246.801723
 20
308.630816
 30
0.0
 11
-246.801723
 21
314.630816
 31
0.0
  0
LINE
  5
9B
100
AcDbEntity
  8
0
370
     0
390
0
  6
Continuous
 62
     7
100
AcDbLine
 10
-258.801723
 20
308.630816
 30
0.0
 11
-258.801723
 21
320.630816
 31
0.0
  0
LINE
  5
9C
100
AcDbEntity
  8
0
370
     0
390
0
  6
Continuous
 62
     7
100
AcDbLine
 10
-270.801723
 20
308.630816
 30
0.0
 11
-270.801723
 21
314.630816
 31
0.0
  0
LINE
  5
9D
100
AcDbEntity
  8
0
370
     0
390
0
  6
Continuous
 62
     7
100
AcDbLine
 10
-282.801723
 20
308.630816
 30
0.0
 11
-282.801723
 21
320.630816
 31
0.0
  0
LINE
  5
9E
100
AcDbEntity
  8
0
370
     0
390
0
  6
Continuous
 62
     7
100
AcDbLine
 10
281.198277
 20
308.630816
 30
0.0
 11
281.198277
 21
314.630816
 31
0.0
  0
LINE
  5
9F
100
AcDbEntity
  8
0
370
     0
390
0
  6
Continuous
 62
     7
100
AcDbLine
 10
293.198277
 20
308.630816
 30
0.0
 11
293.198277
 21
320.630816
 31
0.0
  0
LINE
  5
A0
100
AcDbEntity
  8
0
370
     0
390
0
  6
Continuous
 62
     7
100
AcDbLine
 10
305.198277
 20
308.630816
 30
0.0
 11
305.198277
 21
314.630816
 31
0.0
  0
LINE
  5
A1
100
AcDbEntity
  8
0
370
     0
390
0
  6
Continuous
 62
     7
100
AcDbLine
 10
317.198277
 20
308.630816
 30
0.0
 11
317.198277
 21
320.630816
 31
0.0
  0
LINE
  5
A2
100
AcDbEntity
  8
0
370
     0
390
0
  6
Continuous
 62
     7
100
AcDbLine
 10
329.198277
 20
308.630816
 30
0.0
 11
329.198277
 21
314.630816
 31
0.0
  0
LINE
  5
A3
100
AcDbEntity
  8
0
370
     0
390
0
  6
Continuous
 62
     7
100
AcDbLine
 10
-294.801723
 20
308.630816
 30
0.0
 11
-294.801723
 21
314.630816
 31
0.0
  0
LINE
  5
A4
100
AcDbEntity
  8
0
370
     0
390
0
  6
Continuous
 62
     7
100
AcDbLine
 10
-306.801723
 20
308.630816
 30
0.0
 11
-306.801723
 21
320.630816
 31
0.0
  0
LINE
  5
A5
100
AcDbEntity
  8
0
370
     0
390
0
  6
Continuous
 62
     7
100
AcDbLine
 10
-318.801723
 20
308.630816
 30
0.0
 11
-318.801723
 21
314.630816
 31
0.0
  0
LINE
  5
A6
100
AcDbEntity
  8
0
370
     0
390
0
  6
Continuous
 62
     7
100
AcDbLine
 10
-330.801723
 20
308.630816
 30
0.0
 11
-330.801723
 21
320.630816
 31
0.0
  0
LINE
  5
A7
100
AcDbEntity
  8
0
370
     0
390
0
  6
Continuous
 62
     7
100
AcDbLine
 10
-342.801723
 20
308.630816
 30
0.0
 11
-342.801723
 21
314.630816
 31
0.0
  0
LINE
  5
A8
100
AcDbEntity
  8
0
370
     0
390
0
  6
Continuous
 62
     7
100
AcDbLine
 10
5.198277
 20
308.630816
 30
0.0
 11
5.198277
 21
320.630816
 31
0.0
  0
LINE
  5
A9
100
AcDbEntity
  8
0
370
     0
390
0
  6
Continuous
 62
     7
100
AcDbLine
 10
17.198277
 20
308.630816
 30
0.0
 11
17.198277
 21
314.630816
 31
0.0
  0
LINE
  5
AA
100
AcDbEntity
  8
0
370
     0
390
0
  6
Continuous
 62
     7
100
AcDbLine
 10
29.198277
 20
308.630816
 30
0.0
 11
29.198277
 21
320.630816
 31
0.0
  0
LINE
  5
AB
100
AcDbEntity
  8
0
370
     0
390
0
  6
Continuous
 62
     7
100
AcDbLine
 10
-6.801723
 20
308.630816
 30
0.0
 11
-342.801723
 21
308.630816
 31
0.0
  0
LINE
  5
AC
100
AcDbEntity
  8
0
370
     0
390
0
  6
Continuous
 62
     7
100
AcDbLine
 10
-6.801723
 20
308.630816
 30
0.0
 11
329.198277
 21
308.630816
 31
0.0
  0
INSERT
  5
B8
100
AcDbEntity
  8
0
370
     0
390
0
  6
CENTER
 62
   174
100
AcDbBlockReference
  2
arrwhead
 10
-323.801723
 20
368.491668
 30
0.0
 41
1.0
 42
1.0
 50
45.0
  0
POLYLINE
  5
B9
100
AcDbEntity
  8
0
370
     0
390
0
  6
Continuous
 62
   174
100
AcDb2dPolyline
 66
     1
 10
0.0
 20
0.0
 30
0.0
 70
     4
  0
VERTEX
  5
BA
100
AcDbEntity
  8
0
370
     0
390
0
  6
Continuous
 62
   174
100
AcDbVertex
100
AcDb2dVertex
 10
-323.801723
 20
368.741668
 30
0.0
  0
VERTEX
  5
BB
100
AcDbEntity
  8
0
370
     0
390
0
  6
Continuous
 62
   174
100
AcDbVertex
100
AcDb2dVertex
 10
-323.826849
 20
368.721786
 30
0.0
 70
     8
  0
VERTEX
  5
BC
100
AcDbEntity
  8
0
370
     0
390
0
  6
Continuous
 62
   174
100
AcDbVertex
100
AcDb2dVertex
 10
-323.852215
 20
368.702132
 30
0.0
 70
     8
  0
VERTEX
  5
BD
100
AcDbEntity
  8
0
370
     0
390
0
  6
Continuous
 62
   174
100
AcDbVertex
100
AcDb2dVertex
 10
-323.877806
 20
368.68269
 30
0.0
 70
     8
  0
VERTEX
  5
BE
100
AcDbEntity
  8
0
370
     0
390
0
  6
Continuous
 62
   174
100
AcDbVertex
100
AcDb2dVertex
 10
-323.903608
 20
368.663446
 30
0.0
 70
     8
  0
VERTEX
  5
BF
100
AcDbEntity
  8
0
370
     0
390
0
  6
Continuous
 62
   174
100
AcDbVertex
100
AcDb2dVertex
 10
-323.929604
 20
368.644385
 30
0.0
 70
     8
  0
VERTEX
  5
C0
100
AcDbEntity
  8
0
370
     0
390
0
  6
Continuous
 62
   174
100
AcDbVertex
100
AcDb2dVertex
 10
-323.955779
 20
368.625494
 30
0.0
 70
     8
  0
VERTEX
  5
C1
100
AcDbEntity
  8
0
370
     0
390
0
  6
Continuous
 62
   174
100
AcDbVertex
100
AcDb2dVertex
 10
-323.982118
 20
368.606757
 30
0.0
 70
     8
  0
VERTEX
  5
C2
100
AcDbEntity
  8
0
370
     0
390
0
  6
Continuous
 62
   174
100
AcDbVertex
100
AcDb2dVertex
 10
-324.008606
 20
368.58816
 30
0.0
 70
     8
  0
VERTEX
  5
C3
100
AcDbEntity
  8
0
370
     0
390
0
  6
Continuous
 62
   174
100
AcDbVertex
100
AcDb2dVertex
 10
-324.035227
 20
368.569689
 30
0.0
 70
     8
  0
VERTEX
  5
C4
100
AcDbEntity
  8
0
370
     0
390
0
  6
Continuous
 62
   174
100
AcDbVertex
100
AcDb2dVertex
 10
-324.061965
 20
368.551329
 30
0.0
 70
     8
  0
VERTEX
  5
C5
100
AcDbEntity
  8
0
370
     0
390
0
  6
Continuous
 62
   174
100
AcDbVertex
100
AcDb2dVertex
 10
-324.088806
 20
368.533066
 30
0.0
 70
     8
  0
VERTEX
  5
C6
100
AcDbEntity
  8
0
370
     0
390
0
  6
Continuous
 62
   174
100
AcDbVertex
100
AcDb2dVertex
 10
-324.115735
 20
368.514884
 30
0.0
 70
     8
  0
VERTEX
  5
C7
100
AcDbEntity
  8
0
370
     0
390
0
  6
Continuous
 62
   174
100
AcDbVertex
100
AcDb2dVertex
 10
-324.142734
 20
368.49677
 30
0.0
 70
     8
  0
VERTEX
  5
C8
100
AcDbEntity
  8
0
370
     0
390
0
  6
Continuous
 62
   174
100
AcDbVertex
100
AcDb2dVertex
 10
-324.16979
 20
368.47871
 30
0.0
 70
     8
  0
VERTEX
  5
C9
100
AcDbEntity
  8
0
370
     0
390
0
  6
Continuous
 62
   174
100
AcDbVertex
100
AcDb2dVertex
 10
-324.196888
 20
368.460688
 30
0.0
 70
     8
  0
VERTEX
  5
CA
100
AcDbEntity
  8
0
370
     0
390
0
  6
Continuous
 62
   174
100
AcDbVertex
100
AcDb2dVertex
 10
-324.22401
 20
368.44269
 30
0.0
 70
     8
  0
VERTEX
  5
CB
100
AcDbEntity
  8
0
370
     0
390
0
  6
Continuous
 62
   174
100
AcDbVertex
100
AcDb2dVertex
 10
-324.251143
 20
368.424702
 30
0.0
 70
     8
  0
VERTEX
  5
CC
100
AcDbEntity
  8
0
370
     0
390
0
  6
Continuous
 62
   174
100
AcDbVertex
100
AcDb2dVertex
 10
-324.278271
 20
368.406709
 30
0.0
 70
     8
  0
VERTEX
  5
CD
100
AcDbEntity
  8
0
370
     0
390
0
  6
Continuous
 62
   174
100
AcDbVertex
100
AcDb2dVertex
 10
-324.305378
 20
368.388697
 30
0.0
 70
     8
  0
VERTEX
  5
CE
100
AcDbEntity
  8
0
370
     0
390
0
  6
Continuous
 62
   174
100
AcDbVertex
100
AcDb2dVertex
 10
-324.33245
 20
368.370651
 30
0.0
 70
     8
  0
VERTEX
  5
CF
100
AcDbEntity
  8
0
370
     0
390
0
  6
Continuous
 62
   174
100
AcDbVertex
100
AcDb2dVertex
 10
-324.35947
 20
368.352556
 30
0.0
 70
     8
  0
VERTEX
  5
D0
100
AcDbEntity
  8
0
370
     0
390
0
  6
Continuous
 62
   174
100
AcDbVertex
100
AcDb2dVertex
 10
-324.386424
 20
368.334399
 30
0.0
 70
     8
  0
VERTEX
  5
D1
100
AcDbEntity
  8
0
370
     0
390
0
  6
Continuous
 62
   174
100
AcDbVertex
100
AcDb2dVertex
 10
-324.413296
 20
368.316165
 30
0.0
 70
     8
  0
VERTEX
  5
D2
100
AcDbEntity
  8
0
370
     0
390
0
  6
Continuous
 62
   174
100
AcDbVertex
100
AcDb2dVertex
 10
-324.44007
 20
368.297838
 30
0.0
 70
     8
  0
VERTEX
  5
D3
100
AcDbEntity
  8
0
370
     0
390
0
  6
Continuous
 62
   174
100
AcDbVertex
100
AcDb2dVertex
 10
-324.466732
 20
368.279406
 30
0.0
 70
     8
  0
VERTEX
  5
D4
100
AcDbEntity
  8
0
370
     0
390
0
  6
Continuous
 62
   174
100
AcDbVertex
100
AcDb2dVertex
 10
-324.493266
 20
368.260853
 30
0.0
 70
     8
  0
VERTEX
  5
D5
100
AcDbEntity
  8
0
370
     0
390
0
  6
Continuous
 62
   174
100
AcDbVertex
100
AcDb2dVertex
 10
-324.519656
 20
368.242164
 30
0.0
 70
     8
  0
VERTEX
  5
D6
100
AcDbEntity
  8
0
370
     0
390
0
  6
Continuous
 62
   174
100
AcDbVertex
100
AcDb2dVertex
 10
-324.545888
 20
368.223326
 30
0.0
 70
     8
  0
VERTEX
  5
D7
100
AcDbEntity
  8
0
370
     0
390
0
  6
Continuous
 62
   174
100
AcDbVertex
100
AcDb2dVertex
 10
-324.571945
 20
368.204323
 30
0.0
 70
     8
  0
VERTEX
  5
D8
100
AcDbEntity
  8
0
370
     0
390
0
  6
Continuous
 62
   174
100
AcDbVertex
100
AcDb2dVertex
 10
-324.597813
 20
368.185142
 30
0.0
 70
     8
  0
VERTEX
  5
D9
100
AcDbEntity
  8
0
370
     0
390
0
  6
Continuous
 62
   174
100
AcDbVertex
100
AcDb2dVertex
 10
-324.623476
 20
368.165767
 30
0.0
 70
     8
  0
VERTEX
  5
DA
100
AcDbEntity
  8
0
370
     0
390
0
  6
Continuous
 62
   174
100
AcDbVertex
100
AcDb2dVertex
 10
-324.648919
 20
368.146185
 30
0.0
 70
     8
  0
VERTEX
  5
DB
100
AcDbEntity
  8
0
370
     0
390
0
  6
Continuous
 62
   174
100
AcDbVertex
100
AcDb2dVertex
 10
-324.674127
 20
368.126381
 30
0.0
 70
     8
  0
VERTEX
  5
DC
100
AcDbEntity
  8
0
370
     0
390
0
  6
Continuous
 62
   174
100
AcDbVertex
100
AcDb2dVertex
 10
-324.699083
 20
368.10634
 30
0.0
 70
     8
  0
VERTEX
  5
DD
100
AcDbEntity
  8
0
370
     0
390
0
  6
Continuous
 62
   174
100
AcDbVertex
100
AcDb2dVertex
 10
-324.723773
 20
368.086048
 30
0.0
 70
     8
  0
VERTEX
  5
DE
100
AcDbEntity
  8
0
370
     0
390
0
  6
Continuous
 62
   174
100
AcDbVertex
100
AcDb2dVertex
 10
-324.748182
 20
368.06549
 30
0.0
 70
     8
  0
VERTEX
  5
DF
100
AcDbEntity
  8
0
370
     0
390
0
  6
Continuous
 62
   174
100
AcDbVertex
100
AcDb2dVertex
 10
-324.772293
 20
368.044652
 30
0.0
 70
     8
  0
VERTEX
  5
E0
100
AcDbEntity
  8
0
370
     0
390
0
  6
Continuous
 62
   174
100
AcDbVertex
100
AcDb2dVertex
 10
-324.796093
 20
368.023519
 30
0.0
 70
     8
  0
VERTEX
  5
E1
100
AcDbEntity
  8
0
370
     0
390
0
  6
Continuous
 62
   174
100
AcDbVertex
100
AcDb2dVertex
 10
-324.819564
 20
368.002077
 30
0.0
 70
     8
  0
VERTEX
  5
E2
100
AcDbEntity
  8
0
370
     0
390
0
  6
Continuous
 62
   174
100
AcDbVertex
100
AcDb2dVertex
 10
-324.842692
 20
367.980312
 30
0.0
 70
     8
  0
VERTEX
  5
E3
100
AcDbEntity
  8
0
370
     0
390
0
  6
Continuous
 62
   174
100
AcDbVertex
100
AcDb2dVertex
 10
-324.865462
 20
367.958208
 30
0.0
 70
     8
  0
VERTEX
  5
E4
100
AcDbEntity
  8
0
370
     0
390
0
  6
Continuous
 62
   174
100
AcDbVertex
100
AcDb2dVertex
 10
-324.887858
 20
367.935752
 30
0.0
 70
     8
  0
VERTEX
  5
E5
100
AcDbEntity
  8
0
370
     0
390
0
  6
Continuous
 62
   174
100
AcDbVertex
100
AcDb2dVertex
 10
-324.909864
 20
367.912928
 30
0.0
 70
     8
  0
VERTEX
  5
E6
100
AcDbEntity
  8
0
370
     0
390
0
  6
Continuous
 62
   174
100
AcDbVertex
100
AcDb2dVertex
 10
-324.931467
 20
367.889723
 30
0.0
 70
     8
  0
VERTEX
  5
E7
100
AcDbEntity
  8
0
370
     0
390
0
  6
Continuous
 62
   174
100
AcDbVertex
100
AcDb2dVertex
 10
-324.952649
 20
367.866122
 30
0.0
 70
     8
  0
VERTEX
  5
E8
100
AcDbEntity
  8
0
370
     0
390
0
  6
Continuous
 62
   174
100
AcDbVertex
100
AcDb2dVertex
 10
-324.973396
 20
367.84211
 30
0.0
 70
     8
  0
VERTEX
  5
E9
100
AcDbEntity
  8
0
370
     0
390
0
  6
Continuous
 62
   174
100
AcDbVertex
100
AcDb2dVertex
 10
-324.993692
 20
367.817674
 30
0.0
 70
     8
  0
VERTEX
  5
EA
100
AcDbEntity
  8
0
370
     0
390
0
  6
Continuous
 62
   174
100
AcDbVertex
100
AcDb2dVertex
 10
-325.013522
 20
367.792797
 30
0.0
 70
     8
  0
VERTEX
  5
EB
100
AcDbEntity
  8
0
370
     0
390
0
  6
Continuous
 62
   174
100
AcDbVertex
100
AcDb2dVertex
 10
-325.032871
 20
367.767467
 30
0.0
 70
     8
  0
VERTEX
  5
EC
100
AcDbEntity
  8
0
370
     0
390
0
  6
Continuous
 62
   174
100
AcDbVertex
100
AcDb2dVertex
 10
-325.051723
 20
367.741668
 30
0.0
  0
VERTEX
  5
ED
100
AcDbEntity
  8
0
370
     0
390
0
  6
Continuous
 62
   174
100
AcDbVertex
100
AcDb2dVertex
 10
-325.051723
 20
367.741668
 30
0.0
  0
VERTEX
  5
EE
100
AcDbEntity
  8
0
370
     0
390
0
  6
Continuous
 62
   174
100
AcDbVertex
100
AcDb2dVertex
 10
-325.060156
 20
367.729351
 30
0.0
 70
     8
  0
VERTEX
  5
EF
100
AcDbEntity
  8
0
370
     0
390
0
  6
Continuous
 62
   174
100
AcDbVertex
100
AcDb2dVertex
 10
-325.068034
 20
367.716803
 30
0.0
 70
     8
  0
VERTEX
  5
F0
100
AcDbEntity
  8
0
370
     0
390
0
  6
Continuous
 62
   174
100
AcDbVertex
100
AcDb2dVertex
 10
-325.075372
 20
367.704032
 30
0.0
 70
     8
  0
VERTEX
  5
F1
100
AcDbEntity
  8
0
370
     0
390
0
  6
Continuous
 62
   174
100
AcDbVertex
100
AcDb2dVertex
 10
-325.082183
 20
367.691045
 30
0.0
 70
     8
  0
VERTEX
  5
F2
100
AcDbEntity
  8
0
370
     0
390
0
  6
Continuous
 62
   174
100
AcDbVertex
100
AcDb2dVertex
 10
-325.088478
 20
367.67785
 30
0.0
 70
     8
  0
VERTEX
  5
F3
100
AcDbEntity
  8
0
370
     0
390
0
  6
Continuous
 62
   174
100
AcDbVertex
100
AcDb2dVertex
 10
-325.094273
 20
367.664455
 30
0.0
 70
     8
  0
VERTEX
  5
F4
100
AcDbEntity
  8
0
370
     0
390
0
  6
Continuous
 62
   174
100
AcDbVertex
100
AcDb2dVertex
 10
-325.099579
 20
367.650867
 30
0.0
 70
     8
  0
VERTEX
  5
F5
100
AcDbEntity
  8
0
370
     0
390
0
  6
Continuous
 62
   174
100
AcDbVertex
100
AcDb2dVertex
 10
-325.10441
 20
367.637093
 30
0.0
 70
     8
  0
VERTEX
  5
F6
100
AcDbEntity
  8
0
370
     0
390
0
  6
Continuous
 62
   174
100
AcDbVertex
100
AcDb2dVertex
 10
-325.108778
 20
367.623142
 30
0.0
 70
     8
  0
VERTEX
  5
F7
100
AcDbEntity
  8
0
370
     0
390
0
  6
Continuous
 62
   174
100
AcDbVertex
100
AcDb2dVertex
 10
-325.112698
 20
367.609021
 30
0.0
 70
     8
  0
VERTEX
  5
F8
100
AcDbEntity
  8
0
370
     0
390
0
  6
Continuous
 62
   174
100
AcDbVertex
100
AcDb2dVertex
 10
-325.116182
 20
367.594737
 30
0.0
 70
     8
  0
VERTEX
  5
F9
100
AcDbEntity
  8
0
370
     0
390
0
  6
Continuous
 62
   174
100
AcDbVertex
100
AcDb2dVertex
 10
-325.119243
 20
367.580298
 30
0.0
 70
     8
  0
VERTEX
  5
FA
100
AcDbEntity
  8
0
370
     0
390
0
  6
Continuous
 62
   174
100
AcDbVertex
100
AcDb2dVertex
 10
-325.121894
 20
367.565712
 30
0.0
 70
     8
  0
VERTEX
  5
FB
100
AcDbEntity
  8
0
370
     0
390
0
  6
Continuous
 62
   174
100
AcDbVertex
100
AcDb2dVertex
 10
-325.124149
 20
367.550986
 30
0.0
 70
     8
  0
VERTEX
  5
FC
100
AcDbEntity
  8
0
370
     0
390
0
  6
Continuous
 62
   174
100
AcDbVertex
100
AcDb2dVertex
 10
-325.12602
 20
367.536128
 30
0.0
 70
     8
  0
VERTEX
  5
FD
100
AcDbEntity
  8
0
370
     0
390
0
  6
Continuous
 62
   174
100
AcDbVertex
100
AcDb2dVertex
 10
-325.127521
 20
367.521145
 30
0.0
 70
     8
  0
VERTEX
  5
FE
100
AcDbEntity
  8
0
370
     0
390
0
  6
Continuous
 62
   174
100
AcDbVertex
100
AcDb2dVertex
 10
-325.128664
 20
367.506045
 30
0.0
 70
     8
  0
VERTEX
  5
FF
100
AcDbEntity
  8
0
370
     0
390
0
  6
Continuous
 62
   174
100
AcDbVertex
100
AcDb2dVertex
 10
-325.129463
 20
367.490835
 30
0.0
 70
     8
  0
VERTEX
  5
100
100
AcDbEntity
  8
0
370
     0
390
0
  6
Continuous
 62
   174
100
AcDbVertex
100
AcDb2dVertex
 10
-325.129932
 20
367.475524
 30
0.0
 70
     8
  0
VERTEX
  5
101
100
AcDbEntity
  8
0
370
     0
390
0
  6
Continuous
 62
   174
100
AcDbVertex
100
AcDb2dVertex
 10
-325.130082
 20
367.460118
 30
0.0
 70
     8
  0
VERTEX
  5
102
100
AcDbEntity
  8
0
370
     0
390
0
  6
Continuous
 62
   174
100
AcDbVertex
100
AcDb2dVertex
 10
-325.129927
 20
367.444626
 30
0.0
 70
     8
  0
VERTEX
  5
103
100
AcDbEntity
  8
0
370
     0
390
0
  6
Continuous
 62
   174
100
AcDbVertex
100
AcDb2dVertex
 10
-325.129481
 20
367.429054
 30
0.0
 70
     8
  0
VERTEX
  5
104
100
AcDbEntity
  8
0
370
     0
390
0
  6
Continuous
 62
   174
100
AcDbVertex
100
AcDb2dVertex
 10
-325.128756
 20
367.413411
 30
0.0
 70
     8
  0
VERTEX
  5
105
100
AcDbEntity
  8
0
370
     0
390
0
  6
Continuous
 62
   174
100
AcDbVertex
100
AcDb2dVertex
 10
-325.127765
 20
367.397703
 30
0.0
 70
     8
  0
VERTEX
  5
106
100
AcDbEntity
  8
0
370
     0
390
0
  6
Continuous
 62
   174
100
AcDbVertex
100
AcDb2dVertex
 10
-325.126522
 20
367.38194
 30
0.0
 70
     8
  0
VERTEX
  5
107
100
AcDbEntity
  8
0
370
     0
390
0
  6
Continuous
 62
   174
100
AcDbVertex
100
AcDb2dVertex
 10
-325.125039
 20
367.366127
 30
0.0
 70
     8
  0
VERTEX
  5
108
100
AcDbEntity
  8
0
370
     0
390
0
  6
Continuous
 62
   174
100
AcDbVertex
100
AcDb2dVertex
 10
-325.123331
 20
367.350273
 30
0.0
 70
     8
  0
VERTEX
  5
109
100
AcDbEntity
  8
0
370
     0
390
0
  6
Continuous
 62
   174
100
AcDbVertex
100
AcDb2dVertex
 10
-325.121409
 20
367.334385
 30
0.0
 70
     8
  0
VERTEX
  5
10A
100
AcDbEntity
  8
0
370
     0
390
0
  6
Continuous
 62
   174
100
AcDbVertex
100
AcDb2dVertex
 10
-325.119287
 20
367.318472
 30
0.0
 70
     8
  0
VERTEX
  5
10B
100
AcDbEntity
  8
0
370
     0
390
0
  6
Continuous
 62
   174
100
AcDbVertex
100
AcDb2dVertex
 10
-325.116978
 20
367.302539
 30
0.0
 70
     8
  0
VERTEX
  5
10C
100
AcDbEntity
  8
0
370
     0
390
0
  6
Continuous
 62
   174
100
AcDbVertex
100
AcDb2dVertex
 10
-325.114495
 20
367.286596
 30
0.0
 70
     8
  0
VERTEX
  5
10D
100
AcDbEntity
  8
0
370
     0
390
0
  6
Continuous
 62
   174
100
AcDbVertex
100
AcDb2dVertex
 10
-325.111852
 20
367.270649
 30
0.0
 70
     8
  0
VERTEX
  5
10E
100
AcDbEntity
  8
0
370
     0
390
0
  6
Continuous
 62
   174
100
AcDbVertex
100
AcDb2dVertex
 10
-325.109061
 20
367.254707
 30
0.0
 70
     8
  0
VERTEX
  5
10F
100
AcDbEntity
  8
0
370
     0
390
0
  6
Continuous
 62
   174
100
AcDbVertex
100
AcDb2dVertex
 10
-325.106135
 20
367.238776
 30
0.0
 70
     8
  0
VERTEX
  5
110
100
AcDbEntity
  8
0
370
     0
390
0
  6
Continuous
 62
   174
100
AcDbVertex
100
AcDb2dVertex
 10
-325.103088
 20
367.222865
 30
0.0
 70
     8
  0
VERTEX
  5
111
100
AcDbEntity
  8
0
370
     0
390
0
  6
Continuous
 62
   174
100
AcDbVertex
100
AcDb2dVertex
 10
-325.099933
 20
367.20698
 30
0.0
 70
     8
  0
VERTEX
  5
112
100
AcDbEntity
  8
0
370
     0
390
0
  6
Continuous
 62
   174
100
AcDbVertex
100
AcDb2dVertex
 10
-325.096682
 20
367.19113
 30
0.0
 70
     8
  0
VERTEX
  5
113
100
AcDbEntity
  8
0
370
     0
390
0
  6
Continuous
 62
   174
100
AcDbVertex
100
AcDb2dVertex
 10
-325.09335
 20
367.175322
 30
0.0
 70
     8
  0
VERTEX
  5
114
100
AcDbEntity
  8
0
370
     0
390
0
  6
Continuous
 62
   174
100
AcDbVertex
100
AcDb2dVertex
 10
-325.089948
 20
367.159564
 30
0.0
 70
     8
  0
VERTEX
  5
115
100
AcDbEntity
  8
0
370
     0
390
0
  6
Continuous
 62
   174
100
AcDbVertex
100
AcDb2dVertex
 10
-325.086491
 20
367.143863
 30
0.0
 70
     8
  0
VERTEX
  5
116
100
AcDbEntity
  8
0
370
     0
390
0
  6
Continuous
 62
   174
100
AcDbVertex
100
AcDb2dVertex
 10
-325.08299
 20
367.128227
 30
0.0
 70
     8
  0
VERTEX
  5
117
100
AcDbEntity
  8
0
370
     0
390
0
  6
Continuous
 62
   174
100
AcDbVertex
100
AcDb2dVertex
 10
-325.07946
 20
367.112663
 30
0.0
 70
     8
  0
VERTEX
  5
118
100
AcDbEntity
  8
0
370
     0
390
0
  6
Continuous
 62
   174
100
AcDbVertex
100
AcDb2dVertex
 10
-325.075914
 20
367.097179
 30
0.0
 70
     8
  0
VERTEX
  5
119
100
AcDbEntity
  8
0
370
     0
390
0
  6
Continuous
 62
   174
100
AcDbVertex
100
AcDb2dVertex
 10
-325.072363
 20
367.081783
 30
0.0
 70
     8
  0
VERTEX
  5
11A
100
AcDbEntity
  8
0
370
     0
390
0
  6
Continuous
 62
   174
100
AcDbVertex
100
AcDb2dVertex
 10
-325.068823
 20
367.066482
 30
0.0
 70
     8
  0
VERTEX
  5
11B
100
AcDbEntity
  8
0
370
     0
390
0
  6
Continuous
 62
   174
100
AcDbVertex
100
AcDb2dVertex
 10
-325.065305
 20
367.051283
 30
0.0
 70
     8
  0
VERTEX
  5
11C
100
AcDbEntity
  8
0
370
     0
390
0
  6
Continuous
 62
   174
100
AcDbVertex
100
AcDb2dVertex
 10
-325.061823
 20
367.036195
 30
0.0
 70
     8
  0
VERTEX
  5
11D
100
AcDbEntity
  8
0
370
     0
390
0
  6
Continuous
 62
   174
100
AcDbVertex
100
AcDb2dVertex
 10
-325.05839
 20
367.021225
 30
0.0
 70
     8
  0
VERTEX
  5
11E
100
AcDbEntity
  8
0
370
     0
390
0
  6
Continuous
 62
   174
100
AcDbVertex
100
AcDb2dVertex
 10
-325.055019
 20
367.00638
 30
0.0
 70
     8
  0
VERTEX
  5
11F
100
AcDbEntity
  8
0
370
     0
390
0
  6
Continuous
 62
   174
100
AcDbVertex
100
AcDb2dVertex
 10
-325.051723
 20
366.991668
 30
0.0
  0
VERTEX
  5
120
100
AcDbEntity
  8
0
370
     0
390
0
  6
Continuous
 62
   174
100
AcDbVertex
100
AcDb2dVertex
 10
-325.051723
 20
366.991668
 30
0.0
  0
VERTEX
  5
121
100
AcDbEntity
  8
0
370
     0
390
0
  6
Continuous
 62
   174
100
AcDbVertex
100
AcDb2dVertex
 10
-325.044664
 20
366.960853
 30
0.0
 70
     8
  0
VERTEX
  5
122
100
AcDbEntity
  8
0
370
     0
390
0
  6
Continuous
 62
   174
100
AcDbVertex
100
AcDb2dVertex
 10
-325.037219
 20
366.930142
 30
0.0
 70
     8
  0
VERTEX
  5
123
100
AcDbEntity
  8
0
370
     0
390
0
  6
Continuous
 62
   174
100
AcDbVertex
100
AcDb2dVertex
 10
-325.029404
 20
366.899533
 30
0.0
 70
     8
  0
VERTEX
  5
124
100
AcDbEntity
  8
0
370
     0
390
0
  6
Continuous
 62
   174
100
AcDbVertex
100
AcDb2dVertex
 10
-325.021236
 20
366.86902
 30
0.0
 70
     8
  0
VERTEX
  5
125
100
AcDbEntity
  8
0
370
     0
390
0
  6
Continuous
 62
   174
100
AcDbVertex
100
AcDb2dVertex
 10
-325.012731
 20
366.8386
 30
0.0
 70
     8
  0
VERTEX
  5
126
100
AcDbEntity
  8
0
370
     0
390
0
  6
Continuous
 62
   174
100
AcDbVertex
100
AcDb2dVertex
 10
-325.003906
 20
366.808266
 30
0.0
 70
     8
  0
VERTEX
  5
127
100
AcDbEntity
  8
0
370
     0
390
0
  6
Continuous
 62
   174
100
AcDbVertex
100
AcDb2dVertex
 10
-324.994779
 20
366.778015
 30
0.0
 70
     8
  0
VERTEX
  5
128
100
AcDbEntity
  8
0
370
     0
390
0
  6
Continuous
 62
   174
100
AcDbVertex
100
AcDb2dVertex
 10
-324.985364
 20
366.747843
 30
0.0
 70
     8
  0
VERTEX
  5
129
100
AcDbEntity
  8
0
370
     0
390
0
  6
Continuous
 62
   174
100
AcDbVertex
100
AcDb2dVertex
 10
-324.97568
 20
366.717745
 30
0.0
 70
     8
  0
VERTEX
  5
12A
100
AcDbEntity
  8
0
370
     0
390
0
  6
Continuous
 62
   174
100
AcDbVertex
100
AcDb2dVertex
 10
-324.965742
 20
366.687716
 30
0.0
 70
     8
  0
VERTEX
  5
12B
100
AcDbEntity
  8
0
370
     0
390
0
  6
Continuous
 62
   174
100
AcDbVertex
100
AcDb2dVertex
 10
-324.955568
 20
366.657751
 30
0.0
 70
     8
  0
VERTEX
  5
12C
100
AcDbEntity
  8
0
370
     0
390
0
  6
Continuous
 62
   174
100
AcDbVertex
100
AcDb2dVertex
 10
-324.945174
 20
366.627848
 30
0.0
 70
     8
  0
VERTEX
  5
12D
100
AcDbEntity
  8
0
370
     0
390
0
  6
Continuous
 62
   174
100
AcDbVertex
100
AcDb2dVertex
 10
-324.934576
 20
366.598
 30
0.0
 70
     8
  0
VERTEX
  5
12E
100
AcDbEntity
  8
0
370
     0
390
0
  6
Continuous
 62
   174
100
AcDbVertex
100
AcDb2dVertex
 10
-324.923792
 20
366.568203
 30
0.0
 70
     8
  0
VERTEX
  5
12F
100
AcDbEntity
  8
0
370
     0
390
0
  6
Continuous
 62
   174
100
AcDbVertex
100
AcDb2dVertex
 10
-324.912838
 20
366.538453
 30
0.0
 70
     8
  0
VERTEX
  5
130
100
AcDbEntity
  8
0
370
     0
390
0
  6
Continuous
 62
   174
100
AcDbVertex
100
AcDb2dVertex
 10
-324.90173
 20
366.508745
 30
0.0
 70
     8
  0
VERTEX
  5
131
100
AcDbEntity
  8
0
370
     0
390
0
  6
Continuous
 62
   174
100
AcDbVertex
100
AcDb2dVertex
 10
-324.890486
 20
366.479075
 30
0.0
 70
     8
  0
VERTEX
  5
132
100
AcDbEntity
  8
0
370
     0
390
0
  6
Continuous
 62
   174
100
AcDbVertex
100
AcDb2dVertex
 10
-324.879122
 20
366.449439
 30
0.0
 70
     8
  0
VERTEX
  5
133
100
AcDbEntity
  8
0
370
     0
390
0
  6
Continuous
 62
   174
100
AcDbVertex
100
AcDb2dVertex
 10
-324.867654
 20
366.419831
 30
0.0
 70
     8
  0
VERTEX
  5
134
100
AcDbEntity
  8
0
370
     0
390
0
  6
Continuous
 62
   174
100
AcDbVertex
100
AcDb2dVertex
 10
-324.8561
 20
366.390248
 30
0.0
 70
     8
  0
VERTEX
  5
135
100
AcDbEntity
  8
0
370
     0
390
0
  6
Continuous
 62
   174
100
AcDbVertex
100
AcDb2dVertex
 10
-324.844475
 20
366.360684
 30
0.0
 70
     8
  0
VERTEX
  5
136
100
AcDbEntity
  8
0
370
     0
390
0
  6
Continuous
 62
   174
100
AcDbVertex
100
AcDb2dVertex
 10
-324.832797
 20
366.331135
 30
0.0
 70
     8
  0
VERTEX
  5
137
100
AcDbEntity
  8
0
370
     0
390
0
  6
Continuous
 62
   174
100
AcDbVertex
100
AcDb2dVertex
 10
-324.821083
 20
366.301598
 30
0.0
 70
     8
  0
VERTEX
  5
138
100
AcDbEntity
  8
0
370
     0
390
0
  6
Continuous
 62
   174
100
AcDbVertex
100
AcDb2dVertex
 10
-324.809348
 20
366.272066
 30
0.0
 70
     8
  0
VERTEX
  5
139
100
AcDbEntity
  8
0
370
     0
390
0
  6
Continuous
 62
   174
100
AcDbVertex
100
AcDb2dVertex
 10
-324.797609
 20
366.242536
 30
0.0
 70
     8
  0
VERTEX
  5
13A
100
AcDbEntity
  8
0
370
     0
390
0
  6
Continuous
 62
   174
100
AcDbVertex
100
AcDb2dVertex
 10
-324.785884
 20
366.213004
 30
0.0
 70
     8
  0
VERTEX
  5
13B
100
AcDbEntity
  8
0
370
     0
390
0
  6
Continuous
 62
   174
100
AcDbVertex
100
AcDb2dVertex
 10
-324.774189
 20
366.183464
 30
0.0
 70
     8
  0
VERTEX
  5
13C
100
AcDbEntity
  8
0
370
     0
390
0
  6
Continuous
 62
   174
100
AcDbVertex
100
AcDb2dVertex
 10
-324.76254
 20
366.153913
 30
0.0
 70
     8
  0
VERTEX
  5
13D
100
AcDbEntity
  8
0
370
     0
390
0
  6
Continuous
 62
   174
100
AcDbVertex
100
AcDb2dVertex
 10
-324.750954
 20
366.124345
 30
0.0
 70
     8
  0
VERTEX
  5
13E
100
AcDbEntity
  8
0
370
     0
390
0
  6
Continuous
 62
   174
100
AcDbVertex
100
AcDb2dVertex
 10
-324.739448
 20
366.094756
 30
0.0
 70
     8
  0
VERTEX
  5
13F
100
AcDbEntity
  8
0
370
     0
390
0
  6
Continuous
 62
   174
100
AcDbVertex
100
AcDb2dVertex
 10
-324.728038
 20
366.065142
 30
0.0
 70
     8
  0
VERTEX
  5
140
100
AcDbEntity
  8
0
370
     0
390
0
  6
Continuous
 62
   174
100
AcDbVertex
100
AcDb2dVertex
 10
-324.716742
 20
366.035498
 30
0.0
 70
     8
  0
VERTEX
  5
141
100
AcDbEntity
  8
0
370
     0
390
0
  6
Continuous
 62
   174
100
AcDbVertex
100
AcDb2dVertex
 10
-324.705575
 20
366.00582
 30
0.0
 70
     8
  0
VERTEX
  5
142
100
AcDbEntity
  8
0
370
     0
390
0
  6
Continuous
 62
   174
100
AcDbVertex
100
AcDb2dVertex
 10
-324.694554
 20
365.976103
 30
0.0
 70
     8
  0
VERTEX
  5
143
100
AcDbEntity
  8
0
370
     0
390
0
  6
Continuous
 62
   174
100
AcDbVertex
100
AcDb2dVertex
 10
-324.683697
 20
365.946342
 30
0.0
 70
     8
  0
VERTEX
  5
144
100
AcDbEntity
  8
0
370
     0
390
0
  6
Continuous
 62
   174
100
AcDbVertex
100
AcDb2dVertex
 10
-324.673019
 20
365.916534
 30
0.0
 70
     8
  0
VERTEX
  5
145
100
AcDbEntity
  8
0
370
     0
390
0
  6
Continuous
 62
   174
100
AcDbVertex
100
AcDb2dVertex
 10
-324.662538
 20
365.886673
 30
0.0
 70
     8
  0
VERTEX
  5
146
100
AcDbEntity
  8
0
370
     0
390
0
  6
Continuous
 62
   174
100
AcDbVertex
100
AcDb2dVertex
 10
-324.65227
 20
365.856756
 30
0.0
 70
     8
  0
VERTEX
  5
147
100
AcDbEntity
  8
0
370
     0
390
0
  6
Continuous
 62
   174
100
AcDbVertex
100
AcDb2dVertex
 10
-324.642231
 20
365.826777
 30
0.0
 70
     8
  0
VERTEX
  5
148
100
AcDbEntity
  8
0
370
     0
390
0
  6
Continuous
 62
   174
100
AcDbVertex
100
AcDb2dVertex
 10
-324.632438
 20
365.796732
 30
0.0
 70
     8
  0
VERTEX
  5
149
100
AcDbEntity
  8
0
370
     0
390
0
  6
Continuous
 62
   174
100
AcDbVertex
100
AcDb2dVertex
 10
-324.622909
 20
365.766617
 30
0.0
 70
     8
  0
VERTEX
  5
14A
100
AcDbEntity
  8
0
370
     0
390
0
  6
Continuous
 62
   174
100
AcDbVertex
100
AcDb2dVertex
 10
-324.613659
 20
365.736427
 30
0.0
 70
     8
  0
VERTEX
  5
14B
100
AcDbEntity
  8
0
370
     0
390
0
  6
Continuous
 62
   174
100
AcDbVertex
100
AcDb2dVertex
 10
-324.604705
 20
365.706157
 30
0.0
 70
     8
  0
VERTEX
  5
14C
100
AcDbEntity
  8
0
370
     0
390
0
  6
Continuous
 62
   174
100
AcDbVertex
100
AcDb2dVertex
 10
-324.596064
 20
365.675804
 30
0.0
 70
     8
  0
VERTEX
  5
14D
100
AcDbEntity
  8
0
370
     0
390
0
  6
Continuous
 62
   174
100
AcDbVertex
100
AcDb2dVertex
 10
-324.587753
 20
365.645362
 30
0.0
 70
     8
  0
VERTEX
  5
14E
100
AcDbEntity
  8
0
370
     0
390
0
  6
Continuous
 62
   174
100
AcDbVertex
100
AcDb2dVertex
 10
-324.579788
 20
365.614827
 30
0.0
 70
     8
  0
VERTEX
  5
14F
100
AcDbEntity
  8
0
370
     0
390
0
  6
Continuous
 62
   174
100
AcDbVertex
100
AcDb2dVertex
 10
-324.572186
 20
365.584195
 30
0.0
 70
     8
  0
VERTEX
  5
150
100
AcDbEntity
  8
0
370
     0
390
0
  6
Continuous
 62
   174
100
AcDbVertex
100
AcDb2dVertex
 10
-324.564963
 20
365.553461
 30
0.0
 70
     8
  0
VERTEX
  5
151
100
AcDbEntity
  8
0
370
     0
390
0
  6
Continuous
 62
   174
100
AcDbVertex
100
AcDb2dVertex
 10
-324.558137
 20
365.52262
 30
0.0
 70
     8
  0
VERTEX
  5
152
100
AcDbEntity
  8
0
370
     0
390
0
  6
Continuous
 62
   174
100
AcDbVertex
100
AcDb2dVertex
 10
-324.551723
 20
365.491668
 30
0.0
  0
VERTEX
  5
153
100
AcDbEntity
  8
0
370
     0
390
0
  6
Continuous
 62
   174
100
AcDbVertex
100
AcDb2dVertex
 10
-324.551723
 20
365.491668
 30
0.0
  0
VERTEX
  5
154
100
AcDbEntity
  8
0
370
     0
390
0
  6
Continuous
 62
   174
100
AcDbVertex
100
AcDb2dVertex
 10
-324.547781
 20
365.471998
 30
0.0
 70
     8
  0
VERTEX
  5
155
100
AcDbEntity
  8
0
370
     0
390
0
  6
Continuous
 62
   174
100
AcDbVertex
100
AcDb2dVertex
 10
-324.543809
 20
365.452217
 30
0.0
 70
     8
  0
VERTEX
  5
156
100
AcDbEntity
  8
0
370
     0
390
0
  6
Continuous
 62
   174
100
AcDbVertex
100
AcDb2dVertex
 10
-324.539818
 20
365.432329
 30
0.0
 70
     8
  0
VERTEX
  5
157
100
AcDbEntity
  8
0
370
     0
390
0
  6
Continuous
 62
   174
100
AcDbVertex
100
AcDb2dVertex
 10
-324.535821
 20
365.412341
 30
0.0
 70
     8
  0
VERTEX
  5
158
100
AcDbEntity
  8
0
370
     0
390
0
  6
Continuous
 62
   174
100
AcDbVertex
100
AcDb2dVertex
 10
-324.531828
 20
365.39226
 30
0.0
 70
     8
  0
VERTEX
  5
159
100
AcDbEntity
  8
0
370
     0
390
0
  6
Continuous
 62
   174
100
AcDbVertex
100
AcDb2dVertex
 10
-324.527853
 20
365.372091
 30
0.0
 70
     8
  0
VERTEX
  5
15A
100
AcDbEntity
  8
0
370
     0
390
0
  6
Continuous
 62
   174
100
AcDbVertex
100
AcDb2dVertex
 10
-324.523907
 20
365.351841
 30
0.0
 70
     8
  0
VERTEX
  5
15B
100
AcDbEntity
  8
0
370
     0
390
0
  6
Continuous
 62
   174
100
AcDbVertex
100
AcDb2dVertex
 10
-324.520003
 20
365.331516
 30
0.0
 70
     8
  0
VERTEX
  5
15C
100
AcDbEntity
  8
0
370
     0
390
0
  6
Continuous
 62
   174
100
AcDbVertex
100
AcDb2dVertex
 10
-324.516151
 20
365.311122
 30
0.0
 70
     8
  0
VERTEX
  5
15D
100
AcDbEntity
  8
0
370
     0
390
0
  6
Continuous
 62
   174
100
AcDbVertex
100
AcDb2dVertex
 10
-324.512365
 20
365.290665
 30
0.0
 70
     8
  0
VERTEX
  5
15E
100
AcDbEntity
  8
0
370
     0
390
0
  6
Continuous
 62
   174
100
AcDbVertex
100
AcDb2dVertex
 10
-324.508655
 20
365.270151
 30
0.0
 70
     8
  0
VERTEX
  5
15F
100
AcDbEntity
  8
0
370
     0
390
0
  6
Continuous
 62
   174
100
AcDbVertex
100
AcDb2dVertex
 10
-324.505035
 20
365.249587
 30
0.0
 70
     8
  0
VERTEX
  5
160
100
AcDbEntity
  8
0
370
     0
390
0
  6
Continuous
 62
   174
100
AcDbVertex
100
AcDb2dVertex
 10
-324.501516
 20
365.228979
 30
0.0
 70
     8
  0
VERTEX
  5
161
100
AcDbEntity
  8
0
370
     0
390
0
  6
Continuous
 62
   174
100
AcDbVertex
100
AcDb2dVertex
 10
-324.49811
 20
365.208332
 30
0.0
 70
     8
  0
VERTEX
  5
162
100
AcDbEntity
  8
0
370
     0
390
0
  6
Continuous
 62
   174
100
AcDbVertex
100
AcDb2dVertex
 10
-324.494828
 20
365.187654
 30
0.0
 70
     8
  0
VERTEX
  5
163
100
AcDbEntity
  8
0
370
     0
390
0
  6
Continuous
 62
   174
100
AcDbVertex
100
AcDb2dVertex
 10
-324.491684
 20
365.16695
 30
0.0
 70
     8
  0
VERTEX
  5
164
100
AcDbEntity
  8
0
370
     0
390
0
  6
Continuous
 62
   174
100
AcDbVertex
100
AcDb2dVertex
 10
-324.488689
 20
365.146226
 30
0.0
 70
     8
  0
VERTEX
  5
165
100
AcDbEntity
  8
0
370
     0
390
0
  6
Continuous
 62
   174
100
AcDbVertex
100
AcDb2dVertex
 10
-324.485854
 20
365.125488
 30
0.0
 70
     8
  0
VERTEX
  5
166
100
AcDbEntity
  8
0
370
     0
390
0
  6
Continuous
 62
   174
100
AcDbVertex
100
AcDb2dVertex
 10
-324.483193
 20
365.104744
 30
0.0
 70
     8
  0
VERTEX
  5
167
100
AcDbEntity
  8
0
370
     0
390
0
  6
Continuous
 62
   174
100
AcDbVertex
100
AcDb2dVertex
 10
-324.480716
 20
365.083998
 30
0.0
 70
     8
  0
VERTEX
  5
168
100
AcDbEntity
  8
0
370
     0
390
0
  6
Continuous
 62
   174
100
AcDbVertex
100
AcDb2dVertex
 10
-324.478436
 20
365.063257
 30
0.0
 70
     8
  0
VERTEX
  5
169
100
AcDbEntity
  8
0
370
     0
390
0
  6
Continuous
 62
   174
100
AcDbVertex
100
AcDb2dVertex
 10
-324.476364
 20
365.042527
 30
0.0
 70
     8
  0
VERTEX
  5
16A
100
AcDbEntity
  8
0
370
     0
390
0
  6
Continuous
 62
   174
100
AcDbVertex
100
AcDb2dVertex
 10
-324.474514
 20
365.021815
 30
0.0
 70
     8
  0
VERTEX
  5
16B
100
AcDbEntity
  8
0
370
     0
390
0
  6
Continuous
 62
   174
100
AcDbVertex
100
AcDb2dVertex
 10
-324.472896
 20
365.001126
 30
0.0
 70
     8
  0
VERTEX
  5
16C
100
AcDbEntity
  8
0
370
     0
390
0
  6
Continuous
 62
   174
100
AcDbVertex
100
AcDb2dVertex
 10
-324.471523
 20
364.980467
 30
0.0
 70
     8
  0
VERTEX
  5
16D
100
AcDbEntity
  8
0
370
     0
390
0
  6
Continuous
 62
   174
100
AcDbVertex
100
AcDb2dVertex
 10
-324.470406
 20
364.959844
 30
0.0
 70
     8
  0
VERTEX
  5
16E
100
AcDbEntity
  8
0
370
     0
390
0
  6
Continuous
 62
   174
100
AcDbVertex
100
AcDb2dVertex
 10
-324.469558
 20
364.939262
 30
0.0
 70
     8
  0
VERTEX
  5
16F
100
AcDbEntity
  8
0
370
     0
390
0
  6
Continuous
 62
   174
100
AcDbVertex
100
AcDb2dVertex
 10
-324.468991
 20
364.918729
 30
0.0
 70
     8
  0
VERTEX
  5
170
100
AcDbEntity
  8
0
370
     0
390
0
  6
Continuous
 62
   174
100
AcDbVertex
100
AcDb2dVertex
 10
-324.468716
 20
364.89825
 30
0.0
 70
     8
  0
VERTEX
  5
171
100
AcDbEntity
  8
0
370
     0
390
0
  6
Continuous
 62
   174
100
AcDbVertex
100
AcDb2dVertex
 10
-324.468746
 20
364.877832
 30
0.0
 70
     8
  0
VERTEX
  5
172
100
AcDbEntity
  8
0
370
     0
390
0
  6
Continuous
 62
   174
100
AcDbVertex
100
AcDb2dVertex
 10
-324.469092
 20
364.857481
 30
0.0
 70
     8
  0
VERTEX
  5
173
100
AcDbEntity
  8
0
370
     0
390
0
  6
Continuous
 62
   174
100
AcDbVertex
100
AcDb2dVertex
 10
-324.469767
 20
364.837202
 30
0.0
 70
     8
  0
VERTEX
  5
174
100
AcDbEntity
  8
0
370
     0
390
0
  6
Continuous
 62
   174
100
AcDbVertex
100
AcDb2dVertex
 10
-324.470782
 20
364.817002
 30
0.0
 70
     8
  0
VERTEX
  5
175
100
AcDbEntity
  8
0
370
     0
390
0
  6
Continuous
 62
   174
100
AcDbVertex
100
AcDb2dVertex
 10
-324.47215
 20
364.796888
 30
0.0
 70
     8
  0
VERTEX
  5
176
100
AcDbEntity
  8
0
370
     0
390
0
  6
Continuous
 62
   174
100
AcDbVertex
100
AcDb2dVertex
 10
-324.473881
 20
364.776864
 30
0.0
 70
     8
  0
VERTEX
  5
177
100
AcDbEntity
  8
0
370
     0
390
0
  6
Continuous
 62
   174
100
AcDbVertex
100
AcDb2dVertex
 10
-324.47599
 20
364.756939
 30
0.0
 70
     8
  0
VERTEX
  5
178
100
AcDbEntity
  8
0
370
     0
390
0
  6
Continuous
 62
   174
100
AcDbVertex
100
AcDb2dVertex
 10
-324.478486
 20
364.737116
 30
0.0
 70
     8
  0
VERTEX
  5
179
100
AcDbEntity
  8
0
370
     0
390
0
  6
Continuous
 62
   174
100
AcDbVertex
100
AcDb2dVertex
 10
-324.481383
 20
364.717404
 30
0.0
 70
     8
  0
VERTEX
  5
17A
100
AcDbEntity
  8
0
370
     0
390
0
  6
Continuous
 62
   174
100
AcDbVertex
100
AcDb2dVertex
 10
-324.484692
 20
364.697808
 30
0.0
 70
     8
  0
VERTEX
  5
17B
100
AcDbEntity
  8
0
370
     0
390
0
  6
Continuous
 62
   174
100
AcDbVertex
100
AcDb2dVertex
 10
-324.488425
 20
364.678334
 30
0.0
 70
     8
  0
VERTEX
  5
17C
100
AcDbEntity
  8
0
370
     0
390
0
  6
Continuous
 62
   174
100
AcDbVertex
100
AcDb2dVertex
 10
-324.492595
 20
364.658988
 30
0.0
 70
     8
  0
VERTEX
  5
17D
100
AcDbEntity
  8
0
370
     0
390
0
  6
Continuous
 62
   174
100
AcDbVertex
100
AcDb2dVertex
 10
-324.497212
 20
364.639777
 30
0.0
 70
     8
  0
VERTEX
  5
17E
100
AcDbEntity
  8
0
370
     0
390
0
  6
Continuous
 62
   174
100
AcDbVertex
100
AcDb2dVertex
 10
-324.50229
 20
364.620706
 30
0.0
 70
     8
  0
VERTEX
  5
17F
100
AcDbEntity
  8
0
370
     0
390
0
  6
Continuous
 62
   174
100
AcDbVertex
100
AcDb2dVertex
 10
-324.50784
 20
364.601782
 30
0.0
 70
     8
  0
VERTEX
  5
180
100
AcDbEntity
  8
0
370
     0
390
0
  6
Continuous
 62
   174
100
AcDbVertex
100
AcDb2dVertex
 10
-324.513874
 20
364.583012
 30
0.0
 70
     8
  0
VERTEX
  5
181
100
AcDbEntity
  8
0
370
     0
390
0
  6
Continuous
 62
   174
100
AcDbVertex
100
AcDb2dVertex
 10
-324.520404
 20
364.5644
 30
0.0
 70
     8
  0
VERTEX
  5
182
100
AcDbEntity
  8
0
370
     0
390
0
  6
Continuous
 62
   174
100
AcDbVertex
100
AcDb2dVertex
 10
-324.527442
 20
364.545954
 30
0.0
 70
     8
  0
VERTEX
  5
183
100
AcDbEntity
  8
0
370
     0
390
0
  6
Continuous
 62
   174
100
AcDbVertex
100
AcDb2dVertex
 10
-324.535
 20
364.527679
 30
0.0
 70
     8
  0
VERTEX
  5
184
100
AcDbEntity
  8
0
370
     0
390
0
  6
Continuous
 62
   174
100
AcDbVertex
100
AcDb2dVertex
 10
-324.543089
 20
364.509582
 30
0.0
 70
     8
  0
VERTEX
  5
185
100
AcDbEntity
  8
0
370
     0
390
0
  6
Continuous
 62
   174
100
AcDbVertex
100
AcDb2dVertex
 10
-324.551723
 20
364.491668
 30
0.0
  0
VERTEX
  5
186
100
AcDbEntity
  8
0
370
     0
390
0
  6
Continuous
 62
   174
100
AcDbVertex
100
AcDb2dVertex
 10
-324.551723
 20
364.491668
 30
0.0
  0
VERTEX
  5
187
100
AcDbEntity
  8
0
370
     0
390
0
  6
Continuous
 62
   174
100
AcDbVertex
100
AcDb2dVertex
 10
-324.560001
 20
364.475793
 30
0.0
 70
     8
  0
VERTEX
  5
188
100
AcDbEntity
  8
0
370
     0
390
0
  6
Continuous
 62
   174
100
AcDbVertex
100
AcDb2dVertex
 10
-324.568765
 20
364.460289
 30
0.0
 70
     8
  0
VERTEX
  5
189
100
AcDbEntity
  8
0
370
     0
390
0
  6
Continuous
 62
   174
100
AcDbVertex
100
AcDb2dVertex
 10
-324.578001
 20
364.445145
 30
0.0
 70
     8
  0
VERTEX
  5
18A
100
AcDbEntity
  8
0
370
     0
390
0
  6
Continuous
 62
   174
100
AcDbVertex
100
AcDb2dVertex
 10
-324.587695
 20
364.430355
 30
0.0
 70
     8
  0
VERTEX
  5
18B
100
AcDbEntity
  8
0
370
     0
390
0
  6
Continuous
 62
   174
100
AcDbVertex
100
AcDb2dVertex
 10
-324.597836
 20
364.415911
 30
0.0
 70
     8
  0
VERTEX
  5
18C
100
AcDbEntity
  8
0
370
     0
390
0
  6
Continuous
 62
   174
100
AcDbVertex
100
AcDb2dVertex
 10
-324.608409
 20
364.401804
 30
0.0
 70
     8
  0
VERTEX
  5
18D
100
AcDbEntity
  8
0
370
     0
390
0
  6
Continuous
 62
   174
100
AcDbVertex
100
AcDb2dVertex
 10
-324.619401
 20
364.388026
 30
0.0
 70
     8
  0
VERTEX
  5
18E
100
AcDbEntity
  8
0
370
     0
390
0
  6
Continuous
 62
   174
100
AcDbVertex
100
AcDb2dVertex
 10
-324.6308
 20
364.374569
 30
0.0
 70
     8
  0
VERTEX
  5
18F
100
AcDbEntity
  8
0
370
     0
390
0
  6
Continuous
 62
   174
100
AcDbVertex
100
AcDb2dVertex
 10
-324.642592
 20
364.361424
 30
0.0
 70
     8
  0
VERTEX
  5
190
100
AcDbEntity
  8
0
370
     0
390
0
  6
Continuous
 62
   174
100
AcDbVertex
100
AcDb2dVertex
 10
-324.654764
 20
364.348585
 30
0.0
 70
     8
  0
VERTEX
  5
191
100
AcDbEntity
  8
0
370
     0
390
0
  6
Continuous
 62
   174
100
AcDbVertex
100
AcDb2dVertex
 10
-324.667302
 20
364.336042
 30
0.0
 70
     8
  0
VERTEX
  5
192
100
AcDbEntity
  8
0
370
     0
390
0
  6
Continuous
 62
   174
100
AcDbVertex
100
AcDb2dVertex
 10
-324.680194
 20
364.323788
 30
0.0
 70
     8
  0
VERTEX
  5
193
100
AcDbEntity
  8
0
370
     0
390
0
  6
Continuous
 62
   174
100
AcDbVertex
100
AcDb2dVertex
 10
-324.693426
 20
364.311814
 30
0.0
 70
     8
  0
VERTEX
  5
194
100
AcDbEntity
  8
0
370
     0
390
0
  6
Continuous
 62
   174
100
AcDbVertex
100
AcDb2dVertex
 10
-324.706986
 20
364.300112
 30
0.0
 70
     8
  0
VERTEX
  5
195
100
AcDbEntity
  8
0
370
     0
390
0
  6
Continuous
 62
   174
100
AcDbVertex
100
AcDb2dVertex
 10
-324.720859
 20
364.288674
 30
0.0
 70
     8
  0
VERTEX
  5
196
100
AcDbEntity
  8
0
370
     0
390
0
  6
Continuous
 62
   174
100
AcDbVertex
100
AcDb2dVertex
 10
-324.735033
 20
364.277493
 30
0.0
 70
     8
  0
VERTEX
  5
197
100
AcDbEntity
  8
0
370
     0
390
0
  6
Continuous
 62
   174
100
AcDbVertex
100
AcDb2dVertex
 10
-324.749494
 20
364.266559
 30
0.0
 70
     8
  0
VERTEX
  5
198
100
AcDbEntity
  8
0
370
     0
390
0
  6
Continuous
 62
   174
100
AcDbVertex
100
AcDb2dVertex
 10
-324.76423
 20
364.255866
 30
0.0
 70
     8
  0
VERTEX
  5
199
100
AcDbEntity
  8
0
370
     0
390
0
  6
Continuous
 62
   174
100
AcDbVertex
100
AcDb2dVertex
 10
-324.779227
 20
364.245403
 30
0.0
 70
     8
  0
VERTEX
  5
19A
100
AcDbEntity
  8
0
370
     0
390
0
  6
Continuous
 62
   174
100
AcDbVertex
100
AcDb2dVertex
 10
-324.794472
 20
364.235165
 30
0.0
 70
     8
  0
VERTEX
  5
19B
100
AcDbEntity
  8
0
370
     0
390
0
  6
Continuous
 62
   174
100
AcDbVertex
100
AcDb2dVertex
 10
-324.809952
 20
364.225141
 30
0.0
 70
     8
  0
VERTEX
  5
19C
100
AcDbEntity
  8
0
370
     0
390
0
  6
Continuous
 62
   174
100
AcDbVertex
100
AcDb2dVertex
 10
-324.825653
 20
364.215326
 30
0.0
 70
     8
  0
VERTEX
  5
19D
100
AcDbEntity
  8
0
370
     0
390
0
  6
Continuous
 62
   174
100
AcDbVertex
100
AcDb2dVertex
 10
-324.841563
 20
364.205709
 30
0.0
 70
     8
  0
VERTEX
  5
19E
100
AcDbEntity
  8
0
370
     0
390
0
  6
Continuous
 62
   174
100
AcDbVertex
100
AcDb2dVertex
 10
-324.857668
 20
364.196283
 30
0.0
 70
     8
  0
VERTEX
  5
19F
100
AcDbEntity
  8
0
370
     0
390
0
  6
Continuous
 62
   174
100
AcDbVertex
100
AcDb2dVertex
 10
-324.873955
 20
364.18704
 30
0.0
 70
     8
  0
VERTEX
  5
1A0
100
AcDbEntity
  8
0
370
     0
390
0
  6
Continuous
 62
   174
100
AcDbVertex
100
AcDb2dVertex
 10
-324.890411
 20
364.177972
 30
0.0
 70
     8
  0
VERTEX
  5
1A1
100
AcDbEntity
  8
0
370
     0
390
0
  6
Continuous
 62
   174
100
AcDbVertex
100
AcDb2dVertex
 10
-324.907023
 20
364.169071
 30
0.0
 70
     8
  0
VERTEX
  5
1A2
100
AcDbEntity
  8
0
370
     0
390
0
  6
Continuous
 62
   174
100
AcDbVertex
100
AcDb2dVertex
 10
-324.923777
 20
364.160328
 30
0.0
 70
     8
  0
VERTEX
  5
1A3
100
AcDbEntity
  8
0
370
     0
390
0
  6
Continuous
 62
   174
100
AcDbVertex
100
AcDb2dVertex
 10
-324.94066
 20
364.151736
 30
0.0
 70
     8
  0
VERTEX
  5
1A4
100
AcDbEntity
  8
0
370
     0
390
0
  6
Continuous
 62
   174
100
AcDbVertex
100
AcDb2dVertex
 10
-324.95766
 20
364.143286
 30
0.0
 70
     8
  0
VERTEX
  5
1A5
100
AcDbEntity
  8
0
370
     0
390
0
  6
Continuous
 62
   174
100
AcDbVertex
100
AcDb2dVertex
 10
-324.974762
 20
364.134971
 30
0.0
 70
     8
  0
VERTEX
  5
1A6
100
AcDbEntity
  8
0
370
     0
390
0
  6
Continuous
 62
   174
100
AcDbVertex
100
AcDb2dVertex
 10
-324.991954
 20
364.126781
 30
0.0
 70
     8
  0
VERTEX
  5
1A7
100
AcDbEntity
  8
0
370
     0
390
0
  6
Continuous
 62
   174
100
AcDbVertex
100
AcDb2dVertex
 10
-325.009223
 20
364.118709
 30
0.0
 70
     8
  0
VERTEX
  5
1A8
100
AcDbEntity
  8
0
370
     0
390
0
  6
Continuous
 62
   174
100
AcDbVertex
100
AcDb2dVertex
 10
-325.026555
 20
364.110747
 30
0.0
 70
     8
  0
VERTEX
  5
1A9
100
AcDbEntity
  8
0
370
     0
390
0
  6
Continuous
 62
   174
100
AcDbVertex
100
AcDb2dVertex
 10
-325.043937
 20
364.102887
 30
0.0
 70
     8
  0
VERTEX
  5
1AA
100
AcDbEntity
  8
0
370
     0
390
0
  6
Continuous
 62
   174
100
AcDbVertex
100
AcDb2dVertex
 10
-325.061357
 20
364.095121
 30
0.0
 70
     8
  0
VERTEX
  5
1AB
100
AcDbEntity
  8
0
370
     0
390
0
  6
Continuous
 62
   174
100
AcDbVertex
100
AcDb2dVertex
 10
-325.0788
 20
364.08744
 30
0.0
 70
     8
  0
VERTEX
  5
1AC
100
AcDbEntity
  8
0
370
     0
390
0
  6
Continuous
 62
   174
100
AcDbVertex
100
AcDb2dVertex
 10
-325.096253
 20
364.079836
 30
0.0
 70
     8
  0
VERTEX
  5
1AD
100
AcDbEntity
  8
0
370
     0
390
0
  6
Continuous
 62
   174
100
AcDbVertex
100
AcDb2dVertex
 10
-325.113704
 20
364.072301
 30
0.0
 70
     8
  0
VERTEX
  5
1AE
100
AcDbEntity
  8
0
370
     0
390
0
  6
Continuous
 62
   174
100
AcDbVertex
100
AcDb2dVertex
 10
-325.131139
 20
364.064828
 30
0.0
 70
     8
  0
VERTEX
  5
1AF
100
AcDbEntity
  8
0
370
     0
390
0
  6
Continuous
 62
   174
100
AcDbVertex
100
AcDb2dVertex
 10
-325.148546
 20
364.057407
 30
0.0
 70
     8
  0
VERTEX
  5
1B0
100
AcDbEntity
  8
0
370
     0
390
0
  6
Continuous
 62
   174
100
AcDbVertex
100
AcDb2dVertex
 10
-325.16591
 20
364.050032
 30
0.0
 70
     8
  0
VERTEX
  5
1B1
100
AcDbEntity
  8
0
370
     0
390
0
  6
Continuous
 62
   174
100
AcDbVertex
100
AcDb2dVertex
 10
-325.183219
 20
364.042693
 30
0.0
 70
     8
  0
VERTEX
  5
1B2
100
AcDbEntity
  8
0
370
     0
390
0
  6
Continuous
 62
   174
100
AcDbVertex
100
AcDb2dVertex
 10
-325.200459
 20
364.035383
 30
0.0
 70
     8
  0
VERTEX
  5
1B3
100
AcDbEntity
  8
0
370
     0
390
0
  6
Continuous
 62
   174
100
AcDbVertex
100
AcDb2dVertex
 10
-325.217618
 20
364.028093
 30
0.0
 70
     8
  0
VERTEX
  5
1B4
100
AcDbEntity
  8
0
370
     0
390
0
  6
Continuous
 62
   174
100
AcDbVertex
100
AcDb2dVertex
 10
-325.234681
 20
364.020816
 30
0.0
 70
     8
  0
VERTEX
  5
1B5
100
AcDbEntity
  8
0
370
     0
390
0
  6
Continuous
 62
   174
100
AcDbVertex
100
AcDb2dVertex
 10
-325.251637
 20
364.013543
 30
0.0
 70
     8
  0
VERTEX
  5
1B6
100
AcDbEntity
  8
0
370
     0
390
0
  6
Continuous
 62
   174
100
AcDbVertex
100
AcDb2dVertex
 10
-325.268471
 20
364.006266
 30
0.0
 70
     8
  0
VERTEX
  5
1B7
100
AcDbEntity
  8
0
370
     0
390
0
  6
Continuous
 62
   174
100
AcDbVertex
100
AcDb2dVertex
 10
-325.285171
 20
363.998977
 30
0.0
 70
     8
  0
VERTEX
  5
1B8
100
AcDbEntity
  8
0
370
     0
390
0
  6
Continuous
 62
   174
100
AcDbVertex
100
AcDb2dVertex
 10
-325.301723
 20
363.991668
 30
0.0
  0
VERTEX
  5
1B9
100
AcDbEntity
  8
0
370
     0
390
0
  6
Continuous
 62
   174
100
AcDbVertex
100
AcDb2dVertex
 10
-325.301723
 20
363.991668
 30
0.0
  0
VERTEX
  5
1BA
100
AcDbEntity
  8
0
370
     0
390
0
  6
Continuous
 62
   174
100
AcDbVertex
100
AcDb2dVertex
 10
-325.330651
 20
363.978892
 30
0.0
 70
     8
  0
VERTEX
  5
1BB
100
AcDbEntity
  8
0
370
     0
390
0
  6
Continuous
 62
   174
100
AcDbVertex
100
AcDb2dVertex
 10
-325.359638
 20
363.966249
 30
0.0
 70
     8
  0
VERTEX
  5
1BC
100
AcDbEntity
  8
0
370
     0
390
0
  6
Continuous
 62
   174
100
AcDbVertex
100
AcDb2dVertex
 10
-325.388685
 20
363.953737
 30
0.0
 70
     8
  0
VERTEX
  5
1BD
100
AcDbEntity
  8
0
370
     0
390
0
  6
Continuous
 62
   174
100
AcDbVertex
100
AcDb2dVertex
 10
-325.41779
 20
363.941356
 30
0.0
 70
     8
  0
VERTEX
  5
1BE
100
AcDbEntity
  8
0
370
     0
390
0
  6
Continuous
 62
   174
100
AcDbVertex
100
AcDb2dVertex
 10
-325.446952
 20
363.929104
 30
0.0
 70
     8
  0
VERTEX
  5
1BF
100
AcDbEntity
  8
0
370
     0
390
0
  6
Continuous
 62
   174
100
AcDbVertex
100
AcDb2dVertex
 10
-325.476169
 20
363.916981
 30
0.0
 70
     8
  0
VERTEX
  5
1C0
100
AcDbEntity
  8
0
370
     0
390
0
  6
Continuous
 62
   174
100
AcDbVertex
100
AcDb2dVertex
 10
-325.505442
 20
363.904984
 30
0.0
 70
     8
  0
VERTEX
  5
1C1
100
AcDbEntity
  8
0
370
     0
390
0
  6
Continuous
 62
   174
100
AcDbVertex
100
AcDb2dVertex
 10
-325.534769
 20
363.893113
 30
0.0
 70
     8
  0
VERTEX
  5
1C2
100
AcDbEntity
  8
0
370
     0
390
0
  6
Continuous
 62
   174
100
AcDbVertex
100
AcDb2dVertex
 10
-325.564148
 20
363.881366
 30
0.0
 70
     8
  0
VERTEX
  5
1C3
100
AcDbEntity
  8
0
370
     0
390
0
  6
Continuous
 62
   174
100
AcDbVertex
100
AcDb2dVertex
 10
-325.59358
 20
363.869743
 30
0.0
 70
     8
  0
VERTEX
  5
1C4
100
AcDbEntity
  8
0
370
     0
390
0
  6
Continuous
 62
   174
100
AcDbVertex
100
AcDb2dVertex
 10
-325.623062
 20
363.858241
 30
0.0
 70
     8
  0
VERTEX
  5
1C5
100
AcDbEntity
  8
0
370
     0
390
0
  6
Continuous
 62
   174
100
AcDbVertex
100
AcDb2dVertex
 10
-325.652594
 20
363.84686
 30
0.0
 70
     8
  0
VERTEX
  5
1C6
100
AcDbEntity
  8
0
370
     0
390
0
  6
Continuous
 62
   174
100
AcDbVertex
100
AcDb2dVertex
 10
-325.682176
 20
363.835599
 30
0.0
 70
     8
  0
VERTEX
  5
1C7
100
AcDbEntity
  8
0
370
     0
390
0
  6
Continuous
 62
   174
100
AcDbVertex
100
AcDb2dVertex
 10
-325.711805
 20
363.824456
 30
0.0
 70
     8
  0
VERTEX
  5
1C8
100
AcDbEntity
  8
0
370
     0
390
0
  6
Continuous
 62
   174
100
AcDbVertex
100
AcDb2dVertex
 10
-325.74148
 20
363.81343
 30
0.0
 70
     8
  0
VERTEX
  5
1C9
100
AcDbEntity
  8
0
370
     0
390
0
  6
Continuous
 62
   174
100
AcDbVertex
100
AcDb2dVertex
 10
-325.771202
 20
363.802519
 30
0.0
 70
     8
  0
VERTEX
  5
1CA
100
AcDbEntity
  8
0
370
     0
390
0
  6
Continuous
 62
   174
100
AcDbVertex
100
AcDb2dVertex
 10
-325.800968
 20
363.791724
 30
0.0
 70
     8
  0
VERTEX
  5
1CB
100
AcDbEntity
  8
0
370
     0
390
0
  6
Continuous
 62
   174
100
AcDbVertex
100
AcDb2dVertex
 10
-325.830779
 20
363.781041
 30
0.0
 70
     8
  0
VERTEX
  5
1CC
100
AcDbEntity
  8
0
370
     0
390
0
  6
Continuous
 62
   174
100
AcDbVertex
100
AcDb2dVertex
 10
-325.860631
 20
363.770471
 30
0.0
 70
     8
  0
VERTEX
  5
1CD
100
AcDbEntity
  8
0
370
     0
390
0
  6
Continuous
 62
   174
100
AcDbVertex
100
AcDb2dVertex
 10
-325.890526
 20
363.760011
 30
0.0
 70
     8
  0
VERTEX
  5
1CE
100
AcDbEntity
  8
0
370
     0
390
0
  6
Continuous
 62
   174
100
AcDbVertex
100
AcDb2dVertex
 10
-325.920461
 20
363.749661
 30
0.0
 70
     8
  0
VERTEX
  5
1CF
100
AcDbEntity
  8
0
370
     0
390
0
  6
Continuous
 62
   174
100
AcDbVertex
100
AcDb2dVertex
 10
-325.950437
 20
363.73942
 30
0.0
 70
     8
  0
VERTEX
  5
1D0
100
AcDbEntity
  8
0
370
     0
390
0
  6
Continuous
 62
   174
100
AcDbVertex
100
AcDb2dVertex
 10
-325.98045
 20
363.729285
 30
0.0
 70
     8
  0
VERTEX
  5
1D1
100
AcDbEntity
  8
0
370
     0
390
0
  6
Continuous
 62
   174
100
AcDbVertex
100
AcDb2dVertex
 10
-326.010502
 20
363.719257
 30
0.0
 70
     8
  0
VERTEX
  5
1D2
100
AcDbEntity
  8
0
370
     0
390
0
  6
Continuous
 62
   174
100
AcDbVertex
100
AcDb2dVertex
 10
-326.04059
 20
363.709333
 30
0.0
 70
     8
  0
VERTEX
  5
1D3
100
AcDbEntity
  8
0
370
     0
390
0
  6
Continuous
 62
   174
100
AcDbVertex
100
AcDb2dVertex
 10
-326.070713
 20
363.699513
 30
0.0
 70
     8
  0
VERTEX
  5
1D4
100
AcDbEntity
  8
0
370
     0
390
0
  6
Continuous
 62
   174
100
AcDbVertex
100
AcDb2dVertex
 10
-326.100872
 20
363.689795
 30
0.0
 70
     8
  0
VERTEX
  5
1D5
100
AcDbEntity
  8
0
370
     0
390
0
  6
Continuous
 62
   174
100
AcDbVertex
100
AcDb2dVertex
 10
-326.131064
 20
363.680178
 30
0.0
 70
     8
  0
VERTEX
  5
1D6
100
AcDbEntity
  8
0
370
     0
390
0
  6
Continuous
 62
   174
100
AcDbVertex
100
AcDb2dVertex
 10
-326.161288
 20
363.670661
 30
0.0
 70
     8
  0
VERTEX
  5
1D7
100
AcDbEntity
  8
0
370
     0
390
0
  6
Continuous
 62
   174
100
AcDbVertex
100
AcDb2dVertex
 10
-326.191544
 20
363.661242
 30
0.0
 70
     8
  0
VERTEX
  5
1D8
100
AcDbEntity
  8
0
370
     0
390
0
  6
Continuous
 62
   174
100
AcDbVertex
100
AcDb2dVertex
 10
-326.221831
 20
363.651921
 30
0.0
 70
     8
  0
VERTEX
  5
1D9
100
AcDbEntity
  8
0
370
     0
390
0
  6
Continuous
 62
   174
100
AcDbVertex
100
AcDb2dVertex
 10
-326.252147
 20
363.642695
 30
0.0
 70
     8
  0
VERTEX
  5
1DA
100
AcDbEntity
  8
0
370
     0
390
0
  6
Continuous
 62
   174
100
AcDbVertex
100
AcDb2dVertex
 10
-326.282491
 20
363.633565
 30
0.0
 70
     8
  0
VERTEX
  5
1DB
100
AcDbEntity
  8
0
370
     0
390
0
  6
Continuous
 62
   174
100
AcDbVertex
100
AcDb2dVertex
 10
-326.312863
 20
363.624528
 30
0.0
 70
     8
  0
VERTEX
  5
1DC
100
AcDbEntity
  8
0
370
     0
390
0
  6
Continuous
 62
   174
100
AcDbVertex
100
AcDb2dVertex
 10
-326.343262
 20
363.615584
 30
0.0
 70
     8
  0
VERTEX
  5
1DD
100
AcDbEntity
  8
0
370
     0
390
0
  6
Continuous
 62
   174
100
AcDbVertex
100
AcDb2dVertex
 10
-326.373686
 20
363.606731
 30
0.0
 70
     8
  0
VERTEX
  5
1DE
100
AcDbEntity
  8
0
370
     0
390
0
  6
Continuous
 62
   174
100
AcDbVertex
100
AcDb2dVertex
 10
-326.404134
 20
363.597967
 30
0.0
 70
     8
  0
VERTEX
  5
1DF
100
AcDbEntity
  8
0
370
     0
390
0
  6
Continuous
 62
   174
100
AcDbVertex
100
AcDb2dVertex
 10
-326.434606
 20
363.589293
 30
0.0
 70
     8
  0
VERTEX
  5
1E0
100
AcDbEntity
  8
0
370
     0
390
0
  6
Continuous
 62
   174
100
AcDbVertex
100
AcDb2dVertex
 10
-326.4651
 20
363.580706
 30
0.0
 70
     8
  0
VERTEX
  5
1E1
100
AcDbEntity
  8
0
370
     0
390
0
  6
Continuous
 62
   174
100
AcDbVertex
100
AcDb2dVertex
 10
-326.495616
 20
363.572205
 30
0.0
 70
     8
  0
VERTEX
  5
1E2
100
AcDbEntity
  8
0
370
     0
390
0
  6
Continuous
 62
   174
100
AcDbVertex
100
AcDb2dVertex
 10
-326.526152
 20
363.563789
 30
0.0
 70
     8
  0
VERTEX
  5
1E3
100
AcDbEntity
  8
0
370
     0
390
0
  6
Continuous
 62
   174
100
AcDbVertex
100
AcDb2dVertex
 10
-326.556707
 20
363.555457
 30
0.0
 70
     8
  0
VERTEX
  5
1E4
100
AcDbEntity
  8
0
370
     0
390
0
  6
Continuous
 62
   174
100
AcDbVertex
100
AcDb2dVertex
 10
-326.58728
 20
363.547207
 30
0.0
 70
     8
  0
VERTEX
  5
1E5
100
AcDbEntity
  8
0
370
     0
390
0
  6
Continuous
 62
   174
100
AcDbVertex
100
AcDb2dVertex
 10
-326.617871
 20
363.539039
 30
0.0
 70
     8
  0
VERTEX
  5
1E6
100
AcDbEntity
  8
0
370
     0
390
0
  6
Continuous
 62
   174
100
AcDbVertex
100
AcDb2dVertex
 10
-326.648479
 20
363.530951
 30
0.0
 70
     8
  0
VERTEX
  5
1E7
100
AcDbEntity
  8
0
370
     0
390
0
  6
Continuous
 62
   174
100
AcDbVertex
100
AcDb2dVertex
 10
-326.679101
 20
363.522941
 30
0.0
 70
     8
  0
VERTEX
  5
1E8
100
AcDbEntity
  8
0
370
     0
390
0
  6
Continuous
 62
   174
100
AcDbVertex
100
AcDb2dVertex
 10
-326.709738
 20
363.51501
 30
0.0
 70
     8
  0
VERTEX
  5
1E9
100
AcDbEntity
  8
0
370
     0
390
0
  6
Continuous
 62
   174
100
AcDbVertex
100
AcDb2dVertex
 10
-326.740388
 20
363.507154
 30
0.0
 70
     8
  0
VERTEX
  5
1EA
100
AcDbEntity
  8
0
370
     0
390
0
  6
Continuous
 62
   174
100
AcDbVertex
100
AcDb2dVertex
 10
-326.77105
 20
363.499374
 30
0.0
 70
     8
  0
VERTEX
  5
1EB
100
AcDbEntity
  8
0
370
     0
390
0
  6
Continuous
 62
   174
100
AcDbVertex
100
AcDb2dVertex
 10
-326.801723
 20
363.491668
 30
0.0
  0
VERTEX
  5
1EC
100
AcDbEntity
  8
0
370
     0
390
0
  6
Continuous
 62
   174
100
AcDbVertex
100
AcDb2dVertex
 10
-326.801723
 20
363.491668
 30
0.0
  0
VERTEX
  5
1ED
100
AcDbEntity
  8
0
370
     0
390
0
  6
Continuous
 62
   174
100
AcDbVertex
100
AcDb2dVertex
 10
-326.851212
 20
363.479395
 30
0.0
 70
     8
  0
VERTEX
  5
1EE
100
AcDbEntity
  8
0
370
     0
390
0
  6
Continuous
 62
   174
100
AcDbVertex
100
AcDb2dVertex
 10
-326.900742
 20
363.467305
 30
0.0
 70
     8
  0
VERTEX
  5
1EF
100
AcDbEntity
  8
0
370
     0
390
0
  6
Continuous
 62
   174
100
AcDbVertex
100
AcDb2dVertex
 10
-326.950312
 20
363.455394
 30
0.0
 70
     8
  0
VERTEX
  5
1F0
100
AcDbEntity
  8
0
370
     0
390
0
  6
Continuous
 62
   174
100
AcDbVertex
100
AcDb2dVertex
 10
-326.999921
 20
363.443655
 30
0.0
 70
     8
  0
VERTEX
  5
1F1
100
AcDbEntity
  8
0
370
     0
390
0
  6
Continuous
 62
   174
100
AcDbVertex
100
AcDb2dVertex
 10
-327.049568
 20
363.432082
 30
0.0
 70
     8
  0
VERTEX
  5
1F2
100
AcDbEntity
  8
0
370
     0
390
0
  6
Continuous
 62
   174
100
AcDbVertex
100
AcDb2dVertex
 10
-327.09925
 20
363.42067
 30
0.0
 70
     8
  0
VERTEX
  5
1F3
100
AcDbEntity
  8
0
370
     0
390
0
  6
Continuous
 62
   174
100
AcDbVertex
100
AcDb2dVertex
 10
-327.148968
 20
363.409414
 30
0.0
 70
     8
  0
VERTEX
  5
1F4
100
AcDbEntity
  8
0
370
     0
390
0
  6
Continuous
 62
   174
100
AcDbVertex
100
AcDb2dVertex
 10
-327.198719
 20
363.398307
 30
0.0
 70
     8
  0
VERTEX
  5
1F5
100
AcDbEntity
  8
0
370
     0
390
0
  6
Continuous
 62
   174
100
AcDbVertex
100
AcDb2dVertex
 10
-327.248502
 20
363.387344
 30
0.0
 70
     8
  0
VERTEX
  5
1F6
100
AcDbEntity
  8
0
370
     0
390
0
  6
Continuous
 62
   174
100
AcDbVertex
100
AcDb2dVertex
 10
-327.298317
 20
363.37652
 30
0.0
 70
     8
  0
VERTEX
  5
1F7
100
AcDbEntity
  8
0
370
     0
390
0
  6
Continuous
 62
   174
100
AcDbVertex
100
AcDb2dVertex
 10
-327.348161
 20
363.365828
 30
0.0
 70
     8
  0
VERTEX
  5
1F8
100
AcDbEntity
  8
0
370
     0
390
0
  6
Continuous
 62
   174
100
AcDbVertex
100
AcDb2dVertex
 10
-327.398034
 20
363.355262
 30
0.0
 70
     8
  0
VERTEX
  5
1F9
100
AcDbEntity
  8
0
370
     0
390
0
  6
Continuous
 62
   174
100
AcDbVertex
100
AcDb2dVertex
 10
-327.447934
 20
363.344818
 30
0.0
 70
     8
  0
VERTEX
  5
1FA
100
AcDbEntity
  8
0
370
     0
390
0
  6
Continuous
 62
   174
100
AcDbVertex
100
AcDb2dVertex
 10
-327.49786
 20
363.33449
 30
0.0
 70
     8
  0
VERTEX
  5
1FB
100
AcDbEntity
  8
0
370
     0
390
0
  6
Continuous
 62
   174
100
AcDbVertex
100
AcDb2dVertex
 10
-327.547811
 20
363.324271
 30
0.0
 70
     8
  0
VERTEX
  5
1FC
100
AcDbEntity
  8
0
370
     0
390
0
  6
Continuous
 62
   174
100
AcDbVertex
100
AcDb2dVertex
 10
-327.597785
 20
363.314157
 30
0.0
 70
     8
  0
VERTEX
  5
1FD
100
AcDbEntity
  8
0
370
     0
390
0
  6
Continuous
 62
   174
100
AcDbVertex
100
AcDb2dVertex
 10
-327.647782
 20
363.30414
 30
0.0
 70
     8
  0
VERTEX
  5
1FE
100
AcDbEntity
  8
0
370
     0
390
0
  6
Continuous
 62
   174
100
AcDbVertex
100
AcDb2dVertex
 10
-327.697799
 20
363.294217
 30
0.0
 70
     8
  0
VERTEX
  5
1FF
100
AcDbEntity
  8
0
370
     0
390
0
  6
Continuous
 62
   174
100
AcDbVertex
100
AcDb2dVertex
 10
-327.747836
 20
363.284381
 30
0.0
 70
     8
  0
VERTEX
  5
200
100
AcDbEntity
  8
0
370
     0
390
0
  6
Continuous
 62
   174
100
AcDbVertex
100
AcDb2dVertex
 10
-327.797891
 20
363.274626
 30
0.0
 70
     8
  0
VERTEX
  5
201
100
AcDbEntity
  8
0
370
     0
390
0
  6
Continuous
 62
   174
100
AcDbVertex
100
AcDb2dVertex
 10
-327.847963
 20
363.264947
 30
0.0
 70
     8
  0
VERTEX
  5
202
100
AcDbEntity
  8
0
370
     0
390
0
  6
Continuous
 62
   174
100
AcDbVertex
100
AcDb2dVertex
 10
-327.898051
 20
363.255338
 30
0.0
 70
     8
  0
VERTEX
  5
203
100
AcDbEntity
  8
0
370
     0
390
0
  6
Continuous
 62
   174
100
AcDbVertex
100
AcDb2dVertex
 10
-327.948153
 20
363.245794
 30
0.0
 70
     8
  0
VERTEX
  5
204
100
AcDbEntity
  8
0
370
     0
390
0
  6
Continuous
 62
   174
100
AcDbVertex
100
AcDb2dVertex
 10
-327.998269
 20
363.236308
 30
0.0
 70
     8
  0
VERTEX
  5
205
100
AcDbEntity
  8
0
370
     0
390
0
  6
Continuous
 62
   174
100
AcDbVertex
100
AcDb2dVertex
 10
-328.048397
 20
363.226875
 30
0.0
 70
     8
  0
VERTEX
  5
206
100
AcDbEntity
  8
0
370
     0
390
0
  6
Continuous
 62
   174
100
AcDbVertex
100
AcDb2dVertex
 10
-328.098535
 20
363.217489
 30
0.0
 70
     8
  0
VERTEX
  5
207
100
AcDbEntity
  8
0
370
     0
390
0
  6
Continuous
 62
   174
100
AcDbVertex
100
AcDb2dVertex
 10
-328.148682
 20
363.208145
 30
0.0
 70
     8
  0
VERTEX
  5
208
100
AcDbEntity
  8
0
370
     0
390
0
  6
Continuous
 62
   174
100
AcDbVertex
100
AcDb2dVertex
 10
-328.198838
 20
363.198837
 30
0.0
 70
     8
  0
VERTEX
  5
209
100
AcDbEntity
  8
0
370
     0
390
0
  6
Continuous
 62
   174
100
AcDbVertex
100
AcDb2dVertex
 10
-328.249
 20
363.18956
 30
0.0
 70
     8
  0
VERTEX
  5
20A
100
AcDbEntity
  8
0
370
     0
390
0
  6
Continuous
 62
   174
100
AcDbVertex
100
AcDb2dVertex
 10
-328.299168
 20
363.180307
 30
0.0
 70
     8
  0
VERTEX
  5
20B
100
AcDbEntity
  8
0
370
     0
390
0
  6
Continuous
 62
   174
100
AcDbVertex
100
AcDb2dVertex
 10
-328.349341
 20
363.171073
 30
0.0
 70
     8
  0
VERTEX
  5
20C
100
AcDbEntity
  8
0
370
     0
390
0
  6
Continuous
 62
   174
100
AcDbVertex
100
AcDb2dVertex
 10
-328.399516
 20
363.161852
 30
0.0
 70
     8
  0
VERTEX
  5
20D
100
AcDbEntity
  8
0
370
     0
390
0
  6
Continuous
 62
   174
100
AcDbVertex
100
AcDb2dVertex
 10
-328.449693
 20
363.152639
 30
0.0
 70
     8
  0
VERTEX
  5
20E
100
AcDbEntity
  8
0
370
     0
390
0
  6
Continuous
 62
   174
100
AcDbVertex
100
AcDb2dVertex
 10
-328.49987
 20
363.143427
 30
0.0
 70
     8
  0
VERTEX
  5
20F
100
AcDbEntity
  8
0
370
     0
390
0
  6
Continuous
 62
   174
100
AcDbVertex
100
AcDb2dVertex
 10
-328.550047
 20
363.134212
 30
0.0
 70
     8
  0
VERTEX
  5
210
100
AcDbEntity
  8
0
370
     0
390
0
  6
Continuous
 62
   174
100
AcDbVertex
100
AcDb2dVertex
 10
-328.600221
 20
363.124988
 30
0.0
 70
     8
  0
VERTEX
  5
211
100
AcDbEntity
  8
0
370
     0
390
0
  6
Continuous
 62
   174
100
AcDbVertex
100
AcDb2dVertex
 10
-328.650392
 20
363.115748
 30
0.0
 70
     8
  0
VERTEX
  5
212
100
AcDbEntity
  8
0
370
     0
390
0
  6
Continuous
 62
   174
100
AcDbVertex
100
AcDb2dVertex
 10
-328.700558
 20
363.106487
 30
0.0
 70
     8
  0
VERTEX
  5
213
100
AcDbEntity
  8
0
370
     0
390
0
  6
Continuous
 62
   174
100
AcDbVertex
100
AcDb2dVertex
 10
-328.750718
 20
363.0972
 30
0.0
 70
     8
  0
VERTEX
  5
214
100
AcDbEntity
  8
0
370
     0
390
0
  6
Continuous
 62
   174
100
AcDbVertex
100
AcDb2dVertex
 10
-328.800872
 20
363.087881
 30
0.0
 70
     8
  0
VERTEX
  5
215
100
AcDbEntity
  8
0
370
     0
390
0
  6
Continuous
 62
   174
100
AcDbVertex
100
AcDb2dVertex
 10
-328.851016
 20
363.078524
 30
0.0
 70
     8
  0
VERTEX
  5
216
100
AcDbEntity
  8
0
370
     0
390
0
  6
Continuous
 62
   174
100
AcDbVertex
100
AcDb2dVertex
 10
-328.901151
 20
363.069123
 30
0.0
 70
     8
  0
VERTEX
  5
217
100
AcDbEntity
  8
0
370
     0
390
0
  6
Continuous
 62
   174
100
AcDbVertex
100
AcDb2dVertex
 10
-328.951275
 20
363.059673
 30
0.0
 70
     8
  0
VERTEX
  5
218
100
AcDbEntity
  8
0
370
     0
390
0
  6
Continuous
 62
   174
100
AcDbVertex
100
AcDb2dVertex
 10
-329.001386
 20
363.050168
 30
0.0
 70
     8
  0
VERTEX
  5
219
100
AcDbEntity
  8
0
370
     0
390
0
  6
Continuous
 62
   174
100
AcDbVertex
100
AcDb2dVertex
 10
-329.051484
 20
363.040603
 30
0.0
 70
     8
  0
VERTEX
  5
21A
100
AcDbEntity
  8
0
370
     0
390
0
  6
Continuous
 62
   174
100
AcDbVertex
100
AcDb2dVertex
 10
-329.101566
 20
363.030971
 30
0.0
 70
     8
  0
VERTEX
  5
21B
100
AcDbEntity
  8
0
370
     0
390
0
  6
Continuous
 62
   174
100
AcDbVertex
100
AcDb2dVertex
 10
-329.151633
 20
363.021268
 30
0.0
 70
     8
  0
VERTEX
  5
21C
100
AcDbEntity
  8
0
370
     0
390
0
  6
Continuous
 62
   174
100
AcDbVertex
100
AcDb2dVertex
 10
-329.201682
 20
363.011486
 30
0.0
 70
     8
  0
VERTEX
  5
21D
100
AcDbEntity
  8
0
370
     0
390
0
  6
Continuous
 62
   174
100
AcDbVertex
100
AcDb2dVertex
 10
-329.251713
 20
363.001622
 30
0.0
 70
     8
  0
VERTEX
  5
21E
100
AcDbEntity
  8
0
370
     0
390
0
  6
Continuous
 62
   174
100
AcDbVertex
100
AcDb2dVertex
 10
-329.301723
 20
362.991668
 30
0.0
  0
SEQEND
  5
21F
100
AcDbEntity
  8
0
370
     0
390
0
  6
Continuous
 62
   174
  0
INSERT
  5
229
100
AcDbEntity
  8
0
370
     0
390
0
  6
Continuous
 62
   174
100
AcDbBlockReference
  2
DRAPE
 10
287.198277
 20
389.241668
 30
0.0
 50
90.0
  0
INSERT
  5
22A
100
AcDbEntity
  8
0
370
     0
390
0
  6
Continuous
 62
   174
100
AcDbBlockReference
  2
DRAPE
 10
299.198277
 20
389.241668
 30
0.0
 50
90.0
  0
INSERT
  5
22B
100
AcDbEntity
  8
0
370
     0
390
0
  6
Continuous
 62
   174
100
AcDbBlockReference
  2
DRAPE
 10
311.198277
 20
389.241668
 30
0.0
 50
90.0
  0
INSERT
  5
22C
100
AcDbEntity
  8
0
370
     0
390
0
  6
Continuous
 62
   174
100
AcDbBlockReference
  2
DRAPE
 10
323.198277
 20
389.241668
 30
0.0
 50
90.0
  0
INSERT
  5
22D
100
AcDbEntity
  8
0
370
     0
390
0
  6
Continuous
 62
   174
100
AcDbBlockReference
  2
DRAPE
 10
335.198277
 20
389.241668
 30
0.0
 50
90.0
  0
INSERT
  5
22E
100
AcDbEntity
  8
0
370
     0
390
0
  6
Continuous
 62
   174
100
AcDbBlockReference
  2
DRAPE
 10
347.198277
 20
389.241668
 30
0.0
 50
90.0
  0
INSERT
  5
22F
100
AcDbEntity
  8
0
370
     0
390
0
  6
Continuous
 62
   174
100
AcDbBlockReference
  2
DRAPE
 10
359.198277
 20
389.241669
 30
0.0
 50
90.0
  0
INSERT
  5
230
100
AcDbEntity
  8
0
370
     0
390
0
  6
Continuous
 62
   174
100
AcDbBlockReference
  2
DRAPE
 10
371.198277
 20
389.241669
 30
0.0
 50
90.0
  0
INSERT
  5
231
100
AcDbEntity
  8
0
370
     0
390
0
  6
Continuous
 62
   174
100
AcDbBlockReference
  2
DRAPE
 10
-300.801723
 20
389.241668
 30
0.0
 41
-1.0
 50
270.0
  0
INSERT
  5
232
100
AcDbEntity
  8
0
370
     0
390
0
  6
Continuous
 62
   174
100
AcDbBlockReference
  2
DRAPE
 10
-312.801723
 20
389.241668
 30
0.0
 41
-1.0
 50
270.0
  0
INSERT
  5
233
100
AcDbEntity
  8
0
370
     0
390
0
  6
Continuous
 62
   174
100
AcDbBlockReference
  2
DRAPE
 10
-324.801723
 20
389.241668
 30
0.0
 41
-1.0
 50
270.0
  0
INSERT
  5
234
100
AcDbEntity
  8
0
370
     0
390
0
  6
Continuous
 62
   174
100
AcDbBlockReference
  2
DRAPE
 10
-336.801723
 20
389.241668
 30
0.0
 41
-1.0
 50
270.0
  0
INSERT
  5
235
100
AcDbEntity
  8
0
370
     0
390
0
  6
Continuous
 62
   174
100
AcDbBlockReference
  2
DRAPE
 10
-348.801723
 20
389.241668
 30
0.0
 41
-1.0
 50
270.0
  0
INSERT
  5
236
100
AcDbEntity
  8
0
370
     0
390
0
  6
Continuous
 62
   174
100
AcDbBlockReference
  2
DRAPE
 10
-360.801723
 20
389.241668
 30
0.0
 41
-1.0
 50
270.0
  0
INSERT
  5
237
100
AcDbEntity
  8
0
370
     0
390
0
  6
Continuous
 62
   174
100
AcDbBlockReference
  2
DRAPE
 10
-372.801723
 20
389.241669
 30
0.0
 41
-1.0
 50
270.0
  0
INSERT
  5
238
100
AcDbEntity
  8
0
370
     0
390
0
  6
Continuous
 62
   174
100
AcDbBlockReference
  2
DRAPE
 10
-384.801723
 20
389.241669
 30
0.0
 41
-1.0
 50
270.0
  0
LINE
  5
23A
100
AcDbEntity
  8
0
370
     0
390
0
  6
DASHED
 62
   174
100
AcDbLine
 10
-6.801723
 20
370.241668
 30
0.0
 11
353.198277
 21
370.241668
 31
0.0
  0
LINE
  5
23B
100
AcDbEntity
  8
0
370
     0
390
0
  6
DASHED
 62
   174
100
AcDbLine
 10
-6.801723
 20
370.241668
 30
0.0
 11
-366.801723
 21
370.241668
 31
0.0
  0
INSERT
  5
23C
100
AcDbEntity
  8
0
370
     0
390
0
  6
Continuous
 62
   174
100
AcDbBlockReference
  2
DRAPE
 10
361.198277
 20
332.241668
 30
0.0
 50
90.0
  0
INSERT
  5
23D
100
AcDbEntity
  8
0
370
     0
390
0
  6
Continuous
 62
   174
100
AcDbBlockReference
  2
DRAPE
 10
349.198277
 20
332.241668
 30
0.0
 50
90.0
  0
INSERT
  5
23E
100
AcDbEntity
  8
0
370
     0
390
0
  6
Continuous
 62
   174
100
AcDbBlockReference
  2
DRAPE
 10
337.198277
 20
332.241668
 30
0.0
 50
90.0
  0
INSERT
  5
23F
100
AcDbEntity
  8
0
370
     0
390
0
  6
Continuous
 62
   174
100
AcDbBlockReference
  2
DRAPE
 10
325.198277
 20
332.241668
 30
0.0
 50
90.0
  0
INSERT
  5
240
100
AcDbEntity
  8
0
370
     0
390
0
  6
Continuous
 62
   174
100
AcDbBlockReference
  2
DRAPE
 10
313.198277
 20
332.241668
 30
0.0
 50
90.0
  0
INSERT
  5
241
100
AcDbEntity
  8
0
370
     0
390
0
  6
Continuous
 62
   174
100
AcDbBlockReference
  2
DRAPE
 10
301.198277
 20
332.241668
 30
0.0
 50
90.0
  0
INSERT
  5
242
100
AcDbEntity
  8
0
370
     0
390
0
  6
Continuous
 62
   174
100
AcDbBlockReference
  2
DRAPE
 10
289.198277
 20
332.241668
 30
0.0
 50
90.0
  0
INSERT
  5
243
100
AcDbEntity
  8
0
370
     0
390
0
  6
Continuous
 62
   174
100
AcDbBlockReference
  2
DRAPE
 10
277.198277
 20
332.241668
 30
0.0
 50
90.0
  0
INSERT
  5
244
100
AcDbEntity
  8
0
370
     0
390
0
  6
Continuous
 62
   174
100
AcDbBlockReference
  2
DRAPE
 10
265.198277
 20
332.241668
 30
0.0
 50
90.0
  0
INSERT
  5
245
100
AcDbEntity
  8
0
370
     0
390
0
  6
Continuous
 62
   174
100
AcDbBlockReference
  2
DRAPE
 10
253.198277
 20
332.241668
 30
0.0
 50
90.0
  0
INSERT
  5
246
100
AcDbEntity
  8
0
370
     0
390
0
  6
Continuous
 62
   174
100
AcDbBlockReference
  2
DRAPE
 10
241.198277
 20
332.241668
 30
0.0
 50
90.0
  0
INSERT
  5
247
100
AcDbEntity
  8
0
370
     0
390
0
  6
Continuous
 62
   174
100
AcDbBlockReference
  2
DRAPE
 10
-374.801723
 20
332.241668
 30
0.0
 41
-1.0
 50
270.0
  0
INSERT
  5
248
100
AcDbEntity
  8
0
370
     0
390
0
  6
Continuous
 62
   174
100
AcDbBlockReference
  2
DRAPE
 10
-362.801723
 20
332.241668
 30
0.0
 41
-1.0
 50
270.0
  0
INSERT
  5
249
100
AcDbEntity
  8
0
370
     0
390
0
  6
Continuous
 62
   174
100
AcDbBlockReference
  2
DRAPE
 10
-350.801723
 20
332.241668
 30
0.0
 41
-1.0
 50
270.0
  0
INSERT
  5
24A
100
AcDbEntity
  8
0
370
     0
390
0
  6
Continuous
 62
   174
100
AcDbBlockReference
  2
DRAPE
 10
-338.801723
 20
332.241668
 30
0.0
 41
-1.0
 50
270.0
  0
INSERT
  5
24B
100
AcDbEntity
  8
0
370
     0
390
0
  6
Continuous
 62
   174
100
AcDbBlockReference
  2
DRAPE
 10
-326.801723
 20
332.241668
 30
0.0
 41
-1.0
 50
270.0
  0
INSERT
  5
24C
100
AcDbEntity
  8
0
370
     0
390
0
  6
Continuous
 62
   174
100
AcDbBlockReference
  2
DRAPE
 10
-314.801723
 20
332.241668
 30
0.0
 41
-1.0
 50
270.0
  0
INSERT
  5
24D
100
AcDbEntity
  8
0
370
     0
390
0
  6
Continuous
 62
   174
100
AcDbBlockReference
  2
DRAPE
 10
-302.801723
 20
332.241668
 30
0.0
 41
-1.0
 50
270.0
  0
INSERT
  5
24E
100
AcDbEntity
  8
0
370
     0
390
0
  6
Continuous
 62
   174
100
AcDbBlockReference
  2
DRAPE
 10
-290.801723
 20
332.241668
 30
0.0
 41
-1.0
 50
270.0
  0
INSERT
  5
24F
100
AcDbEntity
  8
0
370
     0
390
0
  6
Continuous
 62
   174
100
AcDbBlockReference
  2
DRAPE
 10
-278.801723
 20
332.241668
 30
0.0
 41
-1.0
 50
270.0
  0
INSERT
  5
250
100
AcDbEntity
  8
0
370
     0
390
0
  6
Continuous
 62
   174
100
AcDbBlockReference
  2
DRAPE
 10
-266.801723
 20
332.241668
 30
0.0
 41
-1.0
 50
270.0
  0
INSERT
  5
251
100
AcDbEntity
  8
0
370
     0
390
0
  6
Continuous
 62
   174
100
AcDbBlockReference
  2
DRAPE
 10
-254.801723
 20
332.241668
 30
0.0
 41
-1.0
 50
270.0
  0
LINE
  5
253
100
AcDbEntity
  8
POS-HIDDEN
370
     0
390
0
  6
DOT
 62
   174
100
AcDbLine
 10
-102.801723
 20
265.241668
 30
0.0
 11
-144.801723
 21
283.241668
 31
0.0
  0
LINE
  5
254
100
AcDbEntity
  8
POS-HIDDEN
370
     0
390
0
  6
DOT
 62
   174
100
AcDbLine
 10
-144.801723
 20
283.241668
 30
0.0
 11
-170.801723
 21
298.241668
 31
0.0
  0
LINE
  5
255
100
AcDbEntity
  8
POS-HIDDEN
370
     0
390
0
  6
DOT
 62
   174
100
AcDbLine
 10
-103.195665
 20
264.322533
 30
0.0
 11
-145.195665
 21
282.322533
 31
0.0
  0
LINE
  5
256
100
AcDbEntity
  8
POS-HIDDEN
370
     0
390
0
  6
DOT
 62
   174
100
AcDbLine
 10
-102.407781
 20
266.160803
 30
0.0
 11
-144.407781
 21
284.160803
 31
0.0
  0
LINE
  5
257
100
AcDbEntity
  8
POS-HIDDEN
370
     0
390
0
  6
DOT
 62
   174
100
AcDbLine
 10
-145.301421
 20
282.375468
 30
0.0
 11
-171.301421
 21
297.375468
 31
0.0
  0
LINE
  5
258
100
AcDbEntity
  8
POS-HIDDEN
370
     0
390
0
  6
DOT
 62
   174
100
AcDbLine
 10
-144.302025
 20
284.107868
 30
0.0
 11
-170.302025
 21
299.107868
 31
0.0
  0
LINE
  5
259
100
AcDbEntity
  8
POS-HIDDEN
370
     0
390
0
  6
DOT
 62
   174
100
AcDbLine
 10
131.198277
 20
283.241668
 30
0.0
 11
157.198277
 21
298.241668
 31
0.0
  0
LINE
  5
25A
100
AcDbEntity
  8
POS-HIDDEN
370
     0
390
0
  6
DOT
 62
   174
100
AcDbLine
 10
131.697975
 20
282.375468
 30
0.0
 11
157.697975
 21
297.375468
 31
0.0
  0
LINE
  5
25B
100
AcDbEntity
  8
POS-HIDDEN
370
     0
390
0
  6
DOT
 62
   174
100
AcDbLine
 10
130.698579
 20
284.107868
 30
0.0
 11
156.698579
 21
299.107868
 31
0.0
  0
LINE
  5
25C
100
AcDbEntity
  8
POS-HIDDEN
370
     0
390
0
  6
DOT
 62
   174
100
AcDbLine
 10
-54.801723
 20
196.241668
 30
0.0
 11
41.198277
 21
196.241668
 31
0.0
  0
LINE
  5
25D
100
AcDbEntity
  8
POS-HIDDEN
370
     0
390
0
  6
DOT
 62
   174
100
AcDbLine
 10
-54.801723
 20
197.241668
 30
0.0
 11
41.198277
 21
197.241668
 31
0.0
  0
LINE
  5
25E
100
AcDbEntity
  8
POS-HIDDEN
370
     0
390
0
  6
DOT
 62
   174
100
AcDbLine
 10
-54.801723
 20
195.241668
 30
0.0
 11
41.198277
 21
195.241668
 31
0.0
  0
LINE
  5
25F
100
AcDbEntity
  8
POS-HIDDEN
370
     0
390
0
  6
DOT
 62
   174
100
AcDbLine
 10
-54.801723
 20
198.241668
 30
0.0
 11
-133.041715
 21
219.206011
 31
0.0
  0
LINE
  5
260
100
AcDbEntity
  8
POS-HIDDEN
370
     0
390
0
  6
DOT
 62
   174
100
AcDbLine
 10
-54.542904
 20
199.207594
 30
0.0
 11
-132.782896
 21
220.171937
 31
0.0
  0
LINE
  5
261
100
AcDbEntity
  8
POS-HIDDEN
370
     0
390
0
  6
DOT
 62
   174
100
AcDbLine
 10
-54.284085
 20
200.17352
 30
0.0
 11
-132.524077
 21
221.137862
 31
0.0
  0
LINE
  5
262
100
AcDbEntity
  8
0
370
     0
390
0
  6
DASHED
 62
   174
100
AcDbLine
 10
263.198277
 20
289.241668
 30
0.0
 11
323.198277
 21
289.241668
 31
0.0
  0
POLYLINE
  5
263
100
AcDbEntity
  8
0
370
     0
390
0
  6
DASHED
 62
   174
100
AcDb2dPolyline
 66
     1
 10
0.0
 20
0.0
 30
0.0
 70
   128
  0
VERTEX
  5
264
100
AcDbEntity
  8
0
370
     0
390
0
  6
DASHED
 62
   174
100
AcDbVertex
100
AcDb2dVertex
 10
323.198277
 20
289.241668
 30
0.0
  0
VERTEX
  5
265
100
AcDbEntity
  8
0
370
     0
390
0
  6
DASHED
 62
   174
100
AcDbVertex
100
AcDb2dVertex
 10
335.198277
 20
316.241668
 30
0.0
  0
VERTEX
  5
266
100
AcDbEntity
  8
0
370
     0
390
0
  6
DASHED
 62
   174
100
AcDbVertex
100
AcDb2dVertex
 10
367.198277
 20
332.241668
 30
0.0
  0
SEQEND
  5
267
100
AcDbEntity
  8
0
370
     0
390
0
  6
DASHED
 62
   174
  0
LINE
  5
268
100
AcDbEntity
  8
0
370
     0
390
0
  6
DASHED
 62
   174
100
AcDbLine
 10
-276.801723
 20
289.241668
 30
0.0
 11
-336.801723
 21
289.241668
 31
0.0
  0
POLYLINE
  5
269
100
AcDbEntity
  8
0
370
     0
390
0
  6
DASHED
 62
   174
100
AcDb2dPolyline
 66
     1
 10
0.0
 20
0.0
 30
0.0
 70
   128
  0
VERTEX
  5
26A
100
AcDbEntity
  8
0
370
     0
390
0
  6
DASHED
 62
   174
100
AcDbVertex
100
AcDb2dVertex
 10
-336.801723
 20
289.241668
 30
0.0
  0
VERTEX
  5
26B
100
AcDbEntity
  8
0
370
     0
390
0
  6
DASHED
 62
   174
100
AcDbVertex
100
AcDb2dVertex
 10
-348.801723
 20
316.241668
 30
0.0
  0
VERTEX
  5
26C
100
AcDbEntity
  8
0
370
     0
390
0
  6
DASHED
 62
   174
100
AcDbVertex
100
AcDb2dVertex
 10
-380.801723
 20
332.241668
 30
0.0
  0
SEQEND
  5
26D
100
AcDbEntity
  8
0
370
     0
390
0
  6
DASHED
 62
   174
  0
LINE
  5
26E
100
AcDbEntity
  8
POS-HIDDEN
370
     0
390
0
  6
DOT
 62
   174
100
AcDbLine
 10
41.198277
 20
198.241668
 30
0.0
 11
119.438269
 21
219.206011
 31
0.0
  0
LINE
  5
26F
100
AcDbEntity
  8
POS-HIDDEN
370
     0
390
0
  6
DOT
 62
   174
100
AcDbLine
 10
40.939458
 20
199.207594
 30
0.0
 11
119.17945
 21
220.171937
 31
0.0
  0
LINE
  5
270
100
AcDbEntity
  8
POS-HIDDEN
370
     0
390
0
  6
DOT
 62
   174
100
AcDbLine
 10
40.680639
 20
200.17352
 30
0.0
 11
118.920631
 21
221.137862
 31
0.0
  0
LINE
  5
271
100
AcDbEntity
  8
POS-HIDDEN
370
     0
390
0
  6
DOT
 62
   174
100
AcDbLine
 10
-93.801723
 20
136.241668
 30
0.0
 11
-6.856167
 21
136.241668
 31
0.0
  0
LINE
  5
272
100
AcDbEntity
  8
POS-HIDDEN
370
     0
390
0
  6
DOT
 62
   174
100
AcDbLine
 10
-93.801723
 20
137.241668
 30
0.0
 11
-6.856167
 21
137.241668
 31
0.0
  0
LINE
  5
273
100
AcDbEntity
  8
POS-HIDDEN
370
     0
390
0
  6
DOT
 62
   174
100
AcDbLine
 10
-93.801723
 20
135.241668
 30
0.0
 11
-6.856167
 21
135.241668
 31
0.0
  0
LINE
  5
274
100
AcDbEntity
  8
POS-HIDDEN
370
     0
390
0
  6
DOT
 62
   174
100
AcDbLine
 10
80.089389
 20
136.241668
 30
0.0
 11
-6.856167
 21
136.241668
 31
0.0
  0
LINE
  5
275
100
AcDbEntity
  8
POS-HIDDEN
370
     0
390
0
  6
DOT
 62
   174
100
AcDbLine
 10
80.089389
 20
137.241668
 30
0.0
 11
-6.856167
 21
137.241668
 31
0.0
  0
LINE
  5
276
100
AcDbEntity
  8
POS-HIDDEN
370
     0
390
0
  6
DOT
 62
   174
100
AcDbLine
 10
80.089389
 20
135.241668
 30
0.0
 11
-6.856167
 21
135.241668
 31
0.0
  0
LINE
  5
277
100
AcDbEntity
  8
POS-HIDDEN
370
     0
390
0
  6
DOT
 62
   174
100
AcDbLine
 10
124.584942
 20
140.900411
 30
0.0
 11
235.666412
 21
170.664601
 31
0.0
  0
LINE
  5
278
100
AcDbEntity
  8
POS-HIDDEN
370
     0
390
0
  6
DOT
 62
   174
100
AcDbLine
 10
124.326123
 20
141.866337
 30
0.0
 11
235.407593
 21
171.630527
 31
0.0
  0
LINE
  5
279
100
AcDbEntity
  8
POS-HIDDEN
370
     0
390
0
  6
DOT
 62
   174
100
AcDbLine
 10
124.843761
 20
139.934485
 30
0.0
 11
235.925231
 21
169.698675
 31
0.0
  0
LINE
  5
27A
100
AcDbEntity
  8
POS-HIDDEN
370
     0
390
0
  6
DOT
 62
   174
100
AcDbLine
 10
-111.801723
 20
137.241668
 30
0.0
 11
-216.121712
 21
165.194125
 31
0.0
  0
LINE
  5
27B
100
AcDbEntity
  8
POS-HIDDEN
370
     0
390
0
  6
DOT
 62
   174
100
AcDbLine
 10
-111.542904
 20
138.207594
 30
0.0
 11
-215.862893
 21
166.160051
 31
0.0
  0
LINE
  5
27C
100
AcDbEntity
  8
POS-HIDDEN
370
     0
390
0
  6
DOT
 62
   174
100
AcDbLine
 10
-112.060542
 20
136.275742
 30
0.0
 11
-216.380531
 21
164.228199
 31
0.0
  0
LINE
  5
27D
100
AcDbEntity
  8
POS-HIDDEN
370
     0
390
0
  6
DOT
 62
   174
100
AcDbLine
 10
33.198277
 20
-12.758332
 30
0.0
 11
80.469049
 21
-4.423219
 31
0.0
  0
LINE
  5
27E
100
AcDbEntity
  8
POS-HIDDEN
370
     0
390
0
  6
DOT
 62
   174
100
AcDbLine
 10
33.198277
 20
-13.758332
 30
0.0
 11
80.469049
 21
-5.423219
 31
0.0
  0
LINE
  5
27F
100
AcDbEntity
  8
POS-HIDDEN
370
     0
390
0
  6
DOT
 62
   174
100
AcDbLine
 10
33.198277
 20
-14.758332
 30
0.0
 11
80.469049
 21
-6.423219
 31
0.0
  0
LINE
  5
280
100
AcDbEntity
  8
POS-HIDDEN
370
     0
390
0
  6
DOT
 62
   174
100
AcDbLine
 10
-351.384652
 20
-47.280671
 30
0.0
 11
-264.379105
 21
-87.852024
 31
0.0
  0
LINE
  5
281
100
AcDbEntity
  8
POS-HIDDEN
370
     0
390
0
  6
DOT
 62
   174
100
AcDbLine
 10
-351.807271
 20
-48.186979
 30
0.0
 11
-264.801723
 21
-88.758332
 31
0.0
  0
LINE
  5
282
100
AcDbEntity
  8
POS-HIDDEN
370
     0
390
0
  6
DOT
 62
   174
100
AcDbLine
 10
-352.229889
 20
-49.093287
 30
0.0
 11
-265.224341
 21
-89.66464
 31
0.0
  0
LINE
  5
283
100
AcDbEntity
  8
POS-HIDDEN
370
     0
390
0
  6
DOT
 62
   174
100
AcDbLine
 10
337.781206
 20
-47.280671
 30
0.0
 11
250.775659
 21
-87.852024
 31
0.0
  0
LINE
  5
284
100
AcDbEntity
  8
POS-HIDDEN
370
     0
390
0
  6
DOT
 62
   174
100
AcDbLine
 10
338.203824
 20
-48.186979
 30
0.0
 11
251.198277
 21
-88.758332
 31
0.0
  0
LINE
  5
285
100
AcDbEntity
  8
POS-HIDDEN
370
     0
390
0
  6
DOT
 62
   174
100
AcDbLine
 10
338.626443
 20
-49.093287
 30
0.0
 11
251.620895
 21
-89.66464
 31
0.0
  0
LINE
  5
286
100
AcDbEntity
  8
POS-HIDDEN
370
     0
390
0
  6
DOT
 62
   174
100
AcDbLine
 10
558.198277
 20
203.241668
 30
0.0
 11
558.198277
 21
239.241668
 31
0.0
  0
LINE
  5
287
100
AcDbEntity
  8
POS-HIDDEN
370
     0
390
0
  6
DOT
 62
   174
100
AcDbLine
 10
558.198277
 20
239.241668
 30
0.0
 11
570.198277
 21
239.241668
 31
0.0
  0
LINE
  5
288
100
AcDbEntity
  8
POS-HIDDEN
370
     0
390
0
  6
DOT
 62
   174
100
AcDbLine
 10
558.198277
 20
203.241668
 30
0.0
 11
570.198277
 21
203.241668
 31
0.0
  0
LINE
  5
289
100
AcDbEntity
  8
POS-HIDDEN
370
     0
390
0
  6
DOT
 62
   174
100
AcDbLine
 10
559.198277
 20
238.241668
 30
0.0
 11
559.198277
 21
204.241668
 31
0.0
  0
LINE
  5
28A
100
AcDbEntity
  8
POS-HIDDEN
370
     0
390
0
  6
DOT
 62
   174
100
AcDbLine
 10
558.198277
 20
238.241668
 30
0.0
 11
570.198277
 21
238.241668
 31
0.0
  0
LINE
  5
28B
100
AcDbEntity
  8
POS-HIDDEN
370
     0
390
0
  6
DOT
 62
   174
100
AcDbLine
 10
558.198277
 20
204.241668
 30
0.0
 11
570.198277
 21
204.241668
 31
0.0
  0
LINE
  5
28C
100
AcDbEntity
  8
POS-HIDDEN
370
     0
390
0
  6
DOT
 62
   174
100
AcDbLine
 10
557.198277
 20
202.241668
 30
0.0
 11
557.198277
 21
240.241668
 31
0.0
  0
LINE
  5
28D
100
AcDbEntity
  8
POS-HIDDEN
370
     0
390
0
  6
DOT
 62
   174
100
AcDbLine
 10
570.198277
 20
202.241668
 30
0.0
 11
557.198277
 21
202.241668
 31
0.0
  0
LINE
  5
28E
100
AcDbEntity
  8
POS-HIDDEN
370
     0
390
0
  6
DOT
 62
   174
100
AcDbLine
 10
570.198277
 20
240.241668
 30
0.0
 11
557.198277
 21
240.241668
 31
0.0
  0
LINE
  5
28F
100
AcDbEntity
  8
POS-HIDDEN
370
     0
390
0
  6
DOT
 62
   174
100
AcDbLine
 10
474.564302
 20
21.875643
 30
0.0
 11
505.741217
 21
39.875643
 31
0.0
  0
LINE
  5
290
100
AcDbEntity
  8
POS-HIDDEN
370
     0
390
0
  6
DOT
 62
   174
100
AcDbLine
 10
505.741217
 20
39.875643
 30
0.0
 11
511.741217
 21
29.483338
 31
0.0
  0
LINE
  5
291
100
AcDbEntity
  8
POS-HIDDEN
370
     0
390
0
  6
DOT
 62
   174
100
AcDbLine
 10
474.564302
 20
21.875643
 30
0.0
 11
480.564302
 21
11.483338
 31
0.0
  0
LINE
  5
292
100
AcDbEntity
  8
POS-HIDDEN
370
     0
390
0
  6
DOT
 62
   174
100
AcDbLine
 10
505.375191
 20
38.509617
 30
0.0
 11
475.930328
 21
21.509617
 31
0.0
  0
LINE
  5
293
100
AcDbEntity
  8
POS-HIDDEN
370
     0
390
0
  6
DOT
 62
   174
100
AcDbLine
 10
504.875191
 20
39.375643
 30
0.0
 11
510.875191
 21
28.983338
 31
0.0
  0
LINE
  5
294
100
AcDbEntity
  8
POS-HIDDEN
370
     0
390
0
  6
DOT
 62
   174
100
AcDbLine
 10
475.430328
 20
22.375643
 30
0.0
 11
481.430328
 21
11.983338
 31
0.0
  0
LINE
  5
295
100
AcDbEntity
  8
POS-HIDDEN
370
     0
390
0
  6
DOT
 62
   174
100
AcDbLine
 10
473.198277
 20
22.241668
 30
0.0
 11
506.107242
 21
41.241668
 31
0.0
  0
LINE
  5
296
100
AcDbEntity
  8
POS-HIDDEN
370
     0
390
0
  6
DOT
 62
   174
100
AcDbLine
 10
479.698277
 20
10.983338
 30
0.0
 11
473.198277
 21
22.241668
 31
0.0
  0
LINE
  5
297
100
AcDbEntity
  8
POS-HIDDEN
370
     0
390
0
  6
DOT
 62
   174
100
AcDbLine
 10
512.607242
 20
29.983338
 30
0.0
 11
506.107242
 21
41.241668
 31
0.0
  0
LINE
  5
298
100
AcDbEntity
  8
POS-HIDDEN
370
     0
390
0
  6
DOT
 62
   174
100
AcDbLine
 10
-571.801723
 20
203.241668
 30
0.0
 11
-571.801723
 21
239.241668
 31
0.0
  0
LINE
  5
299
100
AcDbEntity
  8
POS-HIDDEN
370
     0
390
0
  6
DOT
 62
   174
100
AcDbLine
 10
-571.801723
 20
239.241668
 30
0.0
 11
-583.801723
 21
239.241668
 31
0.0
  0
LINE
  5
29A
100
AcDbEntity
  8
POS-HIDDEN
370
     0
390
0
  6
DOT
 62
   174
100
AcDbLine
 10
-571.801723
 20
203.241668
 30
0.0
 11
-583.801723
 21
203.241668
 31
0.0
  0
LINE
  5
29B
100
AcDbEntity
  8
POS-HIDDEN
370
     0
390
0
  6
DOT
 62
   174
100
AcDbLine
 10
-572.801723
 20
238.241668
 30
0.0
 11
-572.801723
 21
204.241668
 31
0.0
  0
LINE
  5
29C
100
AcDbEntity
  8
POS-HIDDEN
370
     0
390
0
  6
DOT
 62
   174
100
AcDbLine
 10
-571.801723
 20
238.241668
 30
0.0
 11
-583.801723
 21
238.241668
 31
0.0
  0
LINE
  5
29D
100
AcDbEntity
  8
POS-HIDDEN
370
     0
390
0
  6
DOT
 62
   174
100
AcDbLine
 10
-571.801723
 20
204.241668
 30
0.0
 11
-583.801723
 21
204.241668
 31
0.0
  0
LINE
  5
29E
100
AcDbEntity
  8
POS-HIDDEN
370
     0
390
0
  6
DOT
 62
   174
100
AcDbLine
 10
-570.801723
 20
202.241668
 30
0.0
 11
-570.801723
 21
240.241668
 31
0.0
  0
LINE
  5
29F
100
AcDbEntity
  8
POS-HIDDEN
370
     0
390
0
  6
DOT
 62
   174
100
AcDbLine
 10
-583.801723
 20
202.241668
 30
0.0
 11
-570.801723
 21
202.241668
 31
0.0
  0
LINE
  5
2A0
100
AcDbEntity
  8
POS-HIDDEN
370
     0
390
0
  6
DOT
 62
   174
100
AcDbLine
 10
-583.801723
 20
240.241668
 30
0.0
 11
-570.801723
 21
240.241668
 31
0.0
  0
LINE
  5
2A1
100
AcDbEntity
  8
POS-HIDDEN
370
     0
390
0
  6
DOT
 62
   174
100
AcDbLine
 10
-488.167749
 20
21.875643
 30
0.0
 11
-519.344663
 21
39.875643
 31
0.0
  0
LINE
  5
2A2
100
AcDbEntity
  8
POS-HIDDEN
370
     0
390
0
  6
DOT
 62
   174
100
AcDbLine
 10
-519.344663
 20
39.875643
 30
0.0
 11
-525.344663
 21
29.483338
 31
0.0
  0
LINE
  5
2A3
100
AcDbEntity
  8
POS-HIDDEN
370
     0
390
0
  6
DOT
 62
   174
100
AcDbLine
 10
-488.167749
 20
21.875643
 30
0.0
 11
-494.167749
 21
11.483338
 31
0.0
  0
LINE
  5
2A4
100
AcDbEntity
  8
POS-HIDDEN
370
     0
390
0
  6
DOT
 62
   174
100
AcDbLine
 10
-518.978638
 20
38.509617
 30
0.0
 11
-489.533774
 21
21.509617
 31
0.0
  0
LINE
  5
2A5
100
AcDbEntity
  8
POS-HIDDEN
370
     0
390
0
  6
DOT
 62
   174
100
AcDbLine
 10
-518.478638
 20
39.375643
 30
0.0
 11
-524.478638
 21
28.983338
 31
0.0
  0
LINE
  5
2A6
100
AcDbEntity
  8
POS-HIDDEN
370
     0
390
0
  6
DOT
 62
   174
100
AcDbLine
 10
-489.033774
 20
22.375643
 30
0.0
 11
-495.033774
 21
11.983338
 31
0.0
  0
LINE
  5
2A7
100
AcDbEntity
  8
POS-HIDDEN
370
     0
390
0
  6
DOT
 62
   174
100
AcDbLine
 10
-486.801723
 20
22.241668
 30
0.0
 11
-519.710688
 21
41.241668
 31
0.0
  0
LINE
  5
2A8
100
AcDbEntity
  8
POS-HIDDEN
370
     0
390
0
  6
DOT
 62
   174
100
AcDbLine
 10
-493.301723
 20
10.983338
 30
0.0
 11
-486.801723
 21
22.241668
 31
0.0
  0
LINE
  5
2A9
100
AcDbEntity
  8
POS-HIDDEN
370
     0
390
0
  6
DOT
 62
   174
100
AcDbLine
 10
-526.210688
 20
29.983338
 30
0.0
 11
-519.710688
 21
41.241668
 31
0.0
  0
LINE
  5
2AA
100
AcDbEntity
  8
POS-HIDDEN
370
     0
390
0
  6
DOT
 62
   174
100
AcDbLine
 10
41.198277
 20
247.241668
 30
0.0
 11
-54.801723
 21
247.241668
 31
0.0
  0
LINE
  5
2AB
100
AcDbEntity
  8
POS-HIDDEN
370
     0
390
0
  6
DOT
 62
   174
100
AcDbLine
 10
-54.801723
 20
247.241668
 30
0.0
 11
-102.801723
 21
265.241668
 31
0.0
  0
LINE
  5
2AC
100
AcDbEntity
  8
POS-HIDDEN
370
     0
390
0
  6
DOT
 62
   174
100
AcDbLine
 10
41.198277
 20
248.241668
 30
0.0
 11
-54.801723
 21
248.241668
 31
0.0
  0
LINE
  5
2AD
100
AcDbEntity
  8
POS-HIDDEN
370
     0
390
0
  6
DOT
 62
   174
100
AcDbLine
 10
41.198277
 20
246.241668
 30
0.0
 11
-54.801723
 21
246.241668
 31
0.0
  0
LINE
  5
2AE
100
AcDbEntity
  8
POS-HIDDEN
370
     0
390
0
  6
DOT
 62
   174
100
AcDbLine
 10
-55.152911
 20
246.305363
 30
0.0
 11
-103.152911
 21
264.305363
 31
0.0
  0
LINE
  5
2AF
100
AcDbEntity
  8
POS-HIDDEN
370
     0
390
0
  6
DOT
 62
   174
100
AcDbLine
 10
-54.450535
 20
248.177973
 30
0.0
 11
-102.450535
 21
266.177973
 31
0.0
  0
LINE
  5
2B0
100
AcDbEntity
  8
POS-HIDDEN
370
     0
390
0
  6
DOT
 62
   174
100
AcDbLine
 10
41.198277
 20
247.241668
 30
0.0
 11
89.198277
 21
265.241668
 31
0.0
  0
LINE
  5
2B1
100
AcDbEntity
  8
POS-HIDDEN
370
     0
390
0
  6
DOT
 62
   174
100
AcDbLine
 10
89.198277
 20
265.241668
 30
0.0
 11
131.198277
 21
283.241668
 31
0.0
  0
LINE
  5
2B2
100
AcDbEntity
  8
POS-HIDDEN
370
     0
390
0
  6
DOT
 62
   174
100
AcDbLine
 10
41.549465
 20
246.305363
 30
0.0
 11
89.549465
 21
264.305363
 31
0.0
  0
LINE
  5
2B3
100
AcDbEntity
  8
POS-HIDDEN
370
     0
390
0
  6
DOT
 62
   174
100
AcDbLine
 10
40.847089
 20
248.177973
 30
0.0
 11
88.847089
 21
266.177973
 31
0.0
  0
LINE
  5
2B4
100
AcDbEntity
  8
POS-HIDDEN
370
     0
390
0
  6
DOT
 62
   174
100
AcDbLine
 10
89.592219
 20
264.322533
 30
0.0
 11
131.592219
 21
282.322533
 31
0.0
  0
LINE
  5
2B5
100
AcDbEntity
  8
POS-HIDDEN
370
     0
390
0
  6
DOT
 62
   174
100
AcDbLine
 10
88.804335
 20
266.160803
 30
0.0
 11
130.804335
 21
284.160803
 31
0.0
  0
LINE
  5
2B6
100
AcDbEntity
  8
POS-HIDDEN
370
     0
390
0
  6
DOT
 62
   174
100
AcDbLine
 10
33.198277
 20
-13.758332
 30
0.0
 11
-54.801723
 21
-13.758332
 31
0.0
  0
LINE
  5
2B7
100
AcDbEntity
  8
POS-HIDDEN
370
     0
390
0
  6
DOT
 62
   174
100
AcDbLine
 10
33.198277
 20
-12.758332
 30
0.0
 11
-54.801723
 21
-12.758332
 31
0.0
  0
LINE
  5
2B8
100
AcDbEntity
  8
POS-HIDDEN
370
     0
390
0
  6
DOT
 62
   174
100
AcDbLine
 10
33.198277
 20
-14.758332
 30
0.0
 11
-54.801723
 21
-14.758332
 31
0.0
  0
LINE
  5
2B9
100
AcDbEntity
  8
POS-HIDDEN
370
     0
390
0
  6
DOT
 62
   174
100
AcDbLine
 10
-54.801723
 20
-12.758332
 30
0.0
 11
-87.300379
 21
-7.027942
 31
0.0
  0
LINE
  5
2BA
100
AcDbEntity
  8
POS-HIDDEN
370
     0
390
0
  6
DOT
 62
   174
100
AcDbLine
 10
-54.801723
 20
-13.758332
 30
0.0
 11
-87.300379
 21
-8.027942
 31
0.0
  0
LINE
  5
2BB
100
AcDbEntity
  8
POS-HIDDEN
370
     0
390
0
  6
DOT
 62
   174
100
AcDbLine
 10
-54.801723
 20
-14.758332
 30
0.0
 11
-87.300379
 21
-9.027942
 31
0.0
  0
INSERT
  5
310
100
AcDbEntity
  8
0
370
     0
390
0
  6
Continuous
 62
   174
100
AcDbBlockReference
  2
centerline
 10
-6.801723
 20
-224.258332
 30
0.0
  0
LINE
  5
311
100
AcDbEntity
  8
POS-HIDDEN
370
     0
390
0
  6
DOT
 62
   174
100
AcDbLine
 10
-54.801723
 20
-126.758332
 30
0.0
 11
41.198277
 21
-126.758332
 31
0.0
  0
LINE
  5
312
100
AcDbEntity
  8
POS-HIDDEN
370
     0
390
0
  6
DOT
 62
   174
100
AcDbLine
 10
-54.801723
 20
-127.758332
 30
0.0
 11
41.198277
 21
-127.758332
 31
0.0
  0
LINE
  5
313
100
AcDbEntity
  8
POS-HIDDEN
370
     0
390
0
  6
DOT
 62
   174
100
AcDbLine
 10
-54.801723
 20
-128.758332
 30
0.0
 11
41.198277
 21
-128.758332
 31
0.0
  0
LINE
  5
314
100
AcDbEntity
  8
POS-HIDDEN
370
     0
390
0
  6
DOT
 62
   174
100
AcDbLine
 10
-6.801723
 20
-169.758332
 30
0.0
 11
65.198277
 21
-169.758332
 31
0.0
  0
LINE
  5
315
100
AcDbEntity
  8
POS-HIDDEN
370
     0
390
0
  6
DOT
 62
   174
100
AcDbLine
 10
-6.801723
 20
-168.758332
 30
0.0
 11
65.198277
 21
-168.758332
 31
0.0
  0
LINE
  5
316
100
AcDbEntity
  8
POS-HIDDEN
370
     0
390
0
  6
DOT
 62
   174
100
AcDbLine
 10
-6.801723
 20
-169.758332
 30
0.0
 11
-78.801723
 21
-169.758332
 31
0.0
  0
LINE
  5
317
100
AcDbEntity
  8
POS-HIDDEN
370
     0
390
0
  6
DOT
 62
   174
100
AcDbLine
 10
-6.801723
 20
-168.758332
 30
0.0
 11
-78.801723
 21
-168.758332
 31
0.0
  0
INSERT
  5
318
100
AcDbEntity
  8
0
370
     0
390
0
  6
Continuous
 62
   174
100
AcDbBlockReference
  2
centerline
 10
-6.801723
 20
381.995212
 30
0.0
  0
INSERT
  5
32B
100
AcDbEntity
  8
BORDER
370
     0
390
0
  6
Continuous
 62
     1
100
AcDbBlockReference
  2
etc419
 10
-236.129865
 20
180.091902
 30
0.0
 41
1.0
 42
1.0
 50
330.0
  0
ARC
  5
32C
100
AcDbEntity
  8
TITLE BLOCK
370
     0
390
0
  6
Continuous
 62
   174
100
AcDbCircle
 10
633.706433
 20
-593.8211
 30
0.0
 40
4.5
100
AcDbArc
 50
270.0
 51
360.0
  0
LINE
  5
32D
100
AcDbEntity
  8
TITLE BLOCK
370
     0
390
0
  6
Continuous
 62
   174
100
AcDbLine
 10
633.706433
 20
-598.3211
 30
0.0
 11
627.706433
 21
-598.3211
 31
0.0
  0
ARC
  5
32E
100
AcDbEntity
  8
TITLE BLOCK
370
     0
390
0
  6
Continuous
 62
   174
100
AcDbCircle
 10
627.706433
 20
-596.8211
 30
0.0
 40
6.0
100
AcDbArc
 50
270.0
 51
360.0
  0
LINE
  5
32F
100
AcDbEntity
  8
TITLE BLOCK
370
     0
390
0
  6
Continuous
 62
   174
100
AcDbLine
 10
633.706433
 20
-593.8211
 30
0.0
 11
633.706433
 21
-596.8211
 31
0.0
  0
ARC
  5
330
100
AcDbEntity
  8
TITLE BLOCK
370
    30
390
0
  6
Continuous
 62
    14
100
AcDbCircle
 10
633.706433
 20
-593.8211
 30
0.0
 40
6.0
100
AcDbArc
 50
270.0
 51
360.0
  0
LINE
  5
331
100
AcDbEntity
  8
TITLE BLOCK
370
    30
390
0
  6
Continuous
 62
    14
100
AcDbLine
 10
633.706433
 20
-599.8211
 30
0.0
 11
627.706433
 21
-599.8211
 31
0.0
  0
ARC
  5
332
100
AcDbEntity
  8
TITLE BLOCK
370
    30
390
0
  6
Continuous
 62
    14
100
AcDbCircle
 10
627.706433
 20
-596.8211
 30
0.0
 40
7.5
100
AcDbArc
 50
270.0
 51
360.0
  0
LINE
  5
333
100
AcDbEntity
  8
TITLE BLOCK
370
    30
390
0
  6
Continuous
 62
    14
100
AcDbLine
 10
635.206433
 20
-593.8211
 30
0.0
 11
635.206433
 21
-596.8211
 31
0.0
  0
ARC
  5
334
100
AcDbEntity
  8
TITLE BLOCK
370
     0
390
0
  6
Continuous
 62
   174
100
AcDbCircle
 10
633.706433
 20
-461.95002
 30
0.0
 40
4.5
100
AcDbArc
 50
0.0
 51
90.0
  0
LINE
  5
335
100
AcDbEntity
  8
TITLE BLOCK
370
     0
390
0
  6
Continuous
 62
   174
100
AcDbLine
 10
633.706433
 20
-457.45002
 30
0.0
 11
627.706433
 21
-457.45002
 31
0.0
  0
ARC
  5
336
100
AcDbEntity
  8
TITLE BLOCK
370
     0
390
0
  6
Continuous
 62
   174
100
AcDbCircle
 10
627.706433
 20
-458.95002
 30
0.0
 40
6.0
100
AcDbArc
 50
360.0
 51
450.0
  0
LINE
  5
337
100
AcDbEntity
  8
TITLE BLOCK
370
     0
390
0
  6
Continuous
 62
   174
100
AcDbLine
 10
633.706433
 20
-461.95002
 30
0.0
 11
633.706433
 21
-458.95002
 31
0.0
  0
ARC
  5
338
100
AcDbEntity
  8
TITLE BLOCK
370
    30
390
0
  6
Continuous
 62
    14
100
AcDbCircle
 10
633.706433
 20
-461.95002
 30
0.0
 40
6.0
100
AcDbArc
 50
360.0
 51
450.0
  0
LINE
  5
339
100
AcDbEntity
  8
TITLE BLOCK
370
    30
390
0
  6
Continuous
 62
    14
100
AcDbLine
 10
633.706433
 20
-455.95002
 30
0.0
 11
627.706433
 21
-455.95002
 31
0.0
  0
ARC
  5
33A
100
AcDbEntity
  8
TITLE BLOCK
370
    30
390
0
  6
Continuous
 62
    14
100
AcDbCircle
 10
627.706433
 20
-458.95002
 30
0.0
 40
7.5
100
AcDbArc
 50
360.0
 51
450.0
  0
LINE
  5
33B
100
AcDbEntity
  8
TITLE BLOCK
370
    30
390
0
  6
Continuous
 62
    14
100
AcDbLine
 10
635.206433
 20
-461.95002
 30
0.0
 11
635.206433
 21
-458.95002
 31
0.0
  0
ARC
  5
33C
100
AcDbEntity
  8
TITLE BLOCK
370
     0
390
0
  6
Continuous
 62
   174
100
AcDbCircle
 10
381.706433
 20
-593.8211
 30
0.0
 40
4.5
100
AcDbArc
 50
180.0
 51
270.0
  0
LINE
  5
33D
100
AcDbEntity
  8
TITLE BLOCK
370
     0
390
0
  6
Continuous
 62
   174
100
AcDbLine
 10
381.706433
 20
-598.3211
 30
0.0
 11
387.706433
 21
-598.3211
 31
0.0
  0
ARC
  5
33E
100
AcDbEntity
  8
TITLE BLOCK
370
     0
390
0
  6
Continuous
 62
   174
100
AcDbCircle
 10
387.706433
 20
-596.8211
 30
0.0
 40
6.0
100
AcDbArc
 50
180.0
 51
270.0
  0
LINE
  5
33F
100
AcDbEntity
  8
TITLE BLOCK
370
     0
390
0
  6
Continuous
 62
   174
100
AcDbLine
 10
381.706433
 20
-593.8211
 30
0.0
 11
381.706433
 21
-596.8211
 31
0.0
  0
ARC
  5
340
100
AcDbEntity
  8
TITLE BLOCK
370
    30
390
0
  6
Continuous
 62
    14
100
AcDbCircle
 10
381.706433
 20
-593.8211
 30
0.0
 40
6.0
100
AcDbArc
 50
180.0
 51
270.0
  0
LINE
  5
341
100
AcDbEntity
  8
TITLE BLOCK
370
    30
390
0
  6
Continuous
 62
    14
100
AcDbLine
 10
381.706433
 20
-599.8211
 30
0.0
 11
387.706433
 21
-599.8211
 31
0.0
  0
ARC
  5
342
100
AcDbEntity
  8
TITLE BLOCK
370
    30
390
0
  6
Continuous
 62
    14
100
AcDbCircle
 10
387.706433
 20
-596.8211
 30
0.0
 40
7.5
100
AcDbArc
 50
180.0
 51
270.0
  0
LINE
  5
343
100
AcDbEntity
  8
TITLE BLOCK
370
    30
390
0
  6
Continuous
 62
    14
100
AcDbLine
 10
380.206433
 20
-593.8211
 30
0.0
 11
380.206433
 21
-596.8211
 31
0.0
  0
ARC
  5
344
100
AcDbEntity
  8
TITLE BLOCK
370
     0
390
0
  6
Continuous
 62
   174
100
AcDbCircle
 10
381.706433
 20
-461.95002
 30
0.0
 40
4.5
100
AcDbArc
 50
90.0
 51
180.0
  0
LINE
  5
345
100
AcDbEntity
  8
TITLE BLOCK
370
     0
390
0
  6
Continuous
 62
   174
100
AcDbLine
 10
381.706433
 20
-457.45002
 30
0.0
 11
387.706433
 21
-457.45002
 31
0.0
  0
ARC
  5
346
100
AcDbEntity
  8
TITLE BLOCK
370
     0
390
0
  6
Continuous
 62
   174
100
AcDbCircle
 10
387.706433
 20
-458.95002
 30
0.0
 40
6.0
100
AcDbArc
 50
90.0
 51
180.0
  0
LINE
  5
347
100
AcDbEntity
  8
TITLE BLOCK
370
     0
390
0
  6
Continuous
 62
   174
100
AcDbLine
 10
381.706433
 20
-461.95002
 30
0.0
 11
381.706433
 21
-458.95002
 31
0.0
  0
ARC
  5
348
100
AcDbEntity
  8
TITLE BLOCK
370
    30
390
0
  6
Continuous
 62
    14
100
AcDbCircle
 10
381.706433
 20
-461.95002
 30
0.0
 40
6.0
100
AcDbArc
 50
90.0
 51
180.0
  0
LINE
  5
349
100
AcDbEntity
  8
TITLE BLOCK
370
    30
390
0
  6
Continuous
 62
    14
100
AcDbLine
 10
381.706433
 20
-455.95002
 30
0.0
 11
387.706433
 21
-455.95002
 31
0.0
  0
ARC
  5
34A
100
AcDbEntity
  8
TITLE BLOCK
370
    30
390
0
  6
Continuous
 62
    14
100
AcDbCircle
 10
387.706433
 20
-458.95002
 30
0.0
 40
7.5
100
AcDbArc
 50
90.0
 51
180.0
  0
LINE
  5
34B
100
AcDbEntity
  8
TITLE BLOCK
370
    30
390
0
  6
Continuous
 62
    14
100
AcDbLine
 10
380.206433
 20
-461.95002
 30
0.0
 11
380.206433
 21
-458.95002
 31
0.0
  0
LINE
  5
34C
100
AcDbEntity
  8
TITLE BLOCK
370
    30
390
0
  6
Continuous
 62
    14
100
AcDbLine
 10
380.206433
 20
-593.8211
 30
0.0
 11
380.206433
 21
-461.95002
 31
0.0
  0
LINE
  5
34D
100
AcDbEntity
  8
TITLE BLOCK
370
     0
390
0
  6
Continuous
 62
   174
100
AcDbLine
 10
377.206433
 20
-593.8211
 30
0.0
 11
377.206433
 21
-461.95002
 31
0.0
  0
LINE
  5
34E
100
AcDbEntity
  8
TITLE BLOCK
370
    30
390
0
  6
Continuous
 62
    14
100
AcDbLine
 10
375.706433
 20
-593.8211
 30
0.0
 11
375.706433
 21
-461.95002
 31
0.0
  0
LINE
  5
34F
100
AcDbEntity
  8
TITLE BLOCK
370
    30
390
0
  6
Continuous
 62
    14
100
AcDbLine
 10
627.706433
 20
-451.45002
 30
0.0
 11
387.706433
 21
-451.45002
 31
0.0
  0
LINE
  5
350
100
AcDbEntity
  8
TITLE BLOCK
370
     0
390
0
  6
Continuous
 62
   174
100
AcDbLine
 10
627.706433
 20
-452.95002
 30
0.0
 11
387.706433
 21
-452.95002
 31
0.0
  0
LINE
  5
351
100
AcDbEntity
  8
TITLE BLOCK
370
    30
390
0
  6
Continuous
 62
    14
100
AcDbLine
 10
627.706433
 20
-455.95002
 30
0.0
 11
387.706433
 21
-455.95002
 31
0.0
  0
LINE
  5
352
100
AcDbEntity
  8
TITLE BLOCK
370
     0
390
0
  6
Continuous
 62
   174
100
AcDbLine
 10
627.706433
 20
-457.45002
 30
0.0
 11
387.706433
 21
-457.45002
 31
0.0
  0
LINE
  5
353
100
AcDbEntity
  8
TITLE BLOCK
370
    30
390
0
  6
Continuous
 62
    14
100
AcDbLine
 10
639.706433
 20
-593.8211
 30
0.0
 11
639.706433
 21
-461.95002
 31
0.0
  0
LINE
  5
354
100
AcDbEntity
  8
TITLE BLOCK
370
     0
390
0
  6
Continuous
 62
   174
100
AcDbLine
 10
638.206433
 20
-593.8211
 30
0.0
 11
638.206433
 21
-461.95002
 31
0.0
  0
LINE
  5
355
100
AcDbEntity
  8
TITLE BLOCK
370
    30
390
0
  6
Continuous
 62
    14
100
AcDbLine
 10
635.206433
 20
-593.8211
 30
0.0
 11
635.206433
 21
-461.95002
 31
0.0
  0
LINE
  5
356
100
AcDbEntity
  8
TITLE BLOCK
370
     0
390
0
  6
Continuous
 62
   174
100
AcDbLine
 10
633.706433
 20
-593.8211
 30
0.0
 11
633.706433
 21
-461.95002
 31
0.0
  0
LINE
  5
357
100
AcDbEntity
  8
TITLE BLOCK
370
     0
390
0
  6
Continuous
 62
   174
100
AcDbLine
 10
381.706433
 20
-461.95002
 30
0.0
 11
381.706433
 21
-596.8211
 31
0.0
  0
LINE
  5
358
100
AcDbEntity
  8
TITLE BLOCK
370
     0
390
0
  6
Continuous
 62
   174
100
AcDbLine
 10
627.706433
 20
-598.3211
 30
0.0
 11
387.706433
 21
-598.3211
 31
0.0
  0
LINE
  5
359
100
AcDbEntity
  8
TITLE BLOCK
370
    30
390
0
  6
Continuous
 62
    14
100
AcDbLine
 10
627.706433
 20
-599.8211
 30
0.0
 11
387.706433
 21
-599.8211
 31
0.0
  0
LINE
  5
35A
100
AcDbEntity
  8
TITLE BLOCK
370
     0
390
0
  6
Continuous
 62
   174
100
AcDbLine
 10
627.706433
 20
-602.8211
 30
0.0
 11
387.706433
 21
-602.8211
 31
0.0
  0
LINE
  5
35B
100
AcDbEntity
  8
TITLE BLOCK
370
    30
390
0
  6
Continuous
 62
    14
100
AcDbLine
 10
627.706433
 20
-604.3211
 30
0.0
 11
387.706433
 21
-604.3211
 31
0.0
  0
ARC
  5
35C
100
AcDbEntity
  8
BORDER
370
     0
390
0
  6
Continuous
 62
   174
100
AcDbCircle
 10
659.206433
 20
-611.8211
 30
0.0
 40
4.5
100
AcDbArc
 50
270.0
 51
360.0
  0
LINE
  5
35D
100
AcDbEntity
  8
BORDER
370
     0
390
0
  6
Continuous
 62
   174
100
AcDbLine
 10
659.206433
 20
-616.3211
 30
0.0
 11
653.206433
 21
-616.3211
 31
0.0
  0
ARC
  5
35E
100
AcDbEntity
  8
BORDER
370
     0
390
0
  6
Continuous
 62
   174
100
AcDbCircle
 10
653.206433
 20
-614.8211
 30
0.0
 40
6.0
100
AcDbArc
 50
270.0
 51
360.0
  0
LINE
  5
35F
100
AcDbEntity
  8
BORDER
370
     0
390
0
  6
Continuous
 62
   174
100
AcDbLine
 10
659.206433
 20
-611.8211
 30
0.0
 11
659.206433
 21
-614.8211
 31
0.0
  0
ARC
  5
360
100
AcDbEntity
  8
BORDER
370
    30
390
0
  6
Continuous
 62
    14
100
AcDbCircle
 10
659.206433
 20
-611.8211
 30
0.0
 40
6.0
100
AcDbArc
 50
270.0
 51
360.0
  0
LINE
  5
361
100
AcDbEntity
  8
BORDER
370
    30
390
0
  6
Continuous
 62
    14
100
AcDbLine
 10
659.206433
 20
-617.8211
 30
0.0
 11
653.206433
 21
-617.8211
 31
0.0
  0
ARC
  5
362
100
AcDbEntity
  8
BORDER
370
    30
390
0
  6
Continuous
 62
    14
100
AcDbCircle
 10
653.206433
 20
-614.8211
 30
0.0
 40
7.5
100
AcDbArc
 50
270.0
 51
360.0
  0
LINE
  5
363
100
AcDbEntity
  8
BORDER
370
    30
390
0
  6
Continuous
 62
    14
100
AcDbLine
 10
660.706433
 20
-611.8211
 30
0.0
 11
660.706433
 21
-614.8211
 31
0.0
  0
ARC
  5
364
100
AcDbEntity
  8
BORDER
370
     0
390
0
  6
Continuous
 62
   174
100
AcDbCircle
 10
659.198076
 20
403.55123
 30
0.0
 40
4.5
100
AcDbArc
 50
360.0
 51
450.0
  0
LINE
  5
365
100
AcDbEntity
  8
BORDER
370
     0
390
0
  6
Continuous
 62
   174
100
AcDbLine
 10
659.198076
 20
408.05123
 30
0.0
 11
653.198076
 21
408.05123
 31
0.0
  0
ARC
  5
366
100
AcDbEntity
  8
BORDER
370
     0
390
0
  6
Continuous
 62
   174
100
AcDbCircle
 10
653.198076
 20
406.55123
 30
0.0
 40
6.0
100
AcDbArc
 50
360.0
 51
450.0
  0
LINE
  5
367
100
AcDbEntity
  8
BORDER
370
     0
390
0
  6
Continuous
 62
   174
100
AcDbLine
 10
659.198076
 20
403.55123
 30
0.0
 11
659.198076
 21
406.55123
 31
0.0
  0
ARC
  5
368
100
AcDbEntity
  8
BORDER
370
    30
390
0
  6
Continuous
 62
    14
100
AcDbCircle
 10
659.198076
 20
403.55123
 30
0.0
 40
6.0
100
AcDbArc
 50
360.0
 51
450.0
  0
LINE
  5
369
100
AcDbEntity
  8
BORDER
370
    30
390
0
  6
Continuous
 62
    14
100
AcDbLine
 10
659.198076
 20
409.55123
 30
0.0
 11
653.198076
 21
409.55123
 31
0.0
  0
ARC
  5
36A
100
AcDbEntity
  8
BORDER
370
    30
390
0
  6
Continuous
 62
    14
100
AcDbCircle
 10
653.198076
 20
406.55123
 30
0.0
 40
7.5
100
AcDbArc
 50
0.0
 51
90.0
  0
LINE
  5
36B
100
AcDbEntity
  8
BORDER
370
    30
390
0
  6
Continuous
 62
    14
100
AcDbLine
 10
660.698076
 20
403.55123
 30
0.0
 11
660.698076
 21
406.55123
 31
0.0
  0
LINE
  5
36C
100
AcDbEntity
  8
BORDER
370
     0
390
0
  6
Continuous
 62
   174
100
AcDbLine
 10
663.698076
 20
403.55123
 30
0.0
 11
663.706433
 21
-611.8211
 31
0.0
  0
LINE
  5
36D
100
AcDbEntity
  8
BORDER
370
    30
390
0
  6
Continuous
 62
    14
100
AcDbLine
 10
665.198076
 20
403.55123
 30
0.0
 11
665.206433
 21
-611.8211
 31
0.0
  0
LINE
  5
36E
100
AcDbEntity
  8
BORDER
370
    30
390
0
  6
Continuous
 62
    14
100
AcDbLine
 10
660.698076
 20
403.55123
 30
0.0
 11
660.706433
 21
-611.8211
 31
0.0
  0
LINE
  5
36F
100
AcDbEntity
  8
BORDER
370
     0
390
0
  6
Continuous
 62
   174
100
AcDbLine
 10
659.198076
 20
403.55123
 30
0.0
 11
659.206433
 21
-614.8211
 31
0.0
  0
LINE
  5
370
100
AcDbEntity
  8
BORDER
370
    30
390
0
  6
Continuous
 62
    14
100
AcDbLine
 10
-726.801924
 20
414.05123
 30
0.0
 11
653.198076
 21
414.05123
 31
0.0
  0
LINE
  5
371
100
AcDbEntity
  8
BORDER
370
     0
390
0
  6
Continuous
 62
   174
100
AcDbLine
 10
-726.801924
 20
412.55123
 30
0.0
 11
653.198076
 21
412.55123
 31
0.0
  0
LINE
  5
372
100
AcDbEntity
  8
BORDER
370
    30
390
0
  6
Continuous
 62
    14
100
AcDbLine
 10
-726.801924
 20
409.55123
 30
0.0
 11
659.198076
 21
409.55123
 31
0.0
  0
LINE
  5
373
100
AcDbEntity
  8
BORDER
370
     0
390
0
  6
Continuous
 62
   174
100
AcDbLine
 10
-726.801924
 20
408.05123
 30
0.0
 11
659.198076
 21
408.05123
 31
0.0
  0
LINE
  5
374
100
AcDbEntity
  8
BORDER
370
     0
390
0
  6
Continuous
 62
   174
100
AcDbLine
 10
-726.793567
 20
-616.3211
 30
0.0
 11
659.206433
 21
-616.3211
 31
0.0
  0
LINE
  5
375
100
AcDbEntity
  8
BORDER
370
    30
390
0
  6
Continuous
 62
    14
100
AcDbLine
 10
-726.793567
 20
-617.8211
 30
0.0
 11
659.206433
 21
-617.8211
 31
0.0
  0
LINE
  5
376
100
AcDbEntity
  8
BORDER
370
     0
390
0
  6
Continuous
 62
   174
100
AcDbLine
 10
-726.793567
 20
-620.8211
 30
0.0
 11
653.206433
 21
-620.8211
 31
0.0
  0
LINE
  5
377
100
AcDbEntity
  8
BORDER
370
    30
390
0
  6
Continuous
 62
    14
100
AcDbLine
 10
-726.793567
 20
-622.3211
 30
0.0
 11
653.206433
 21
-622.3211
 31
0.0
  0
LINE
  5
378
100
AcDbEntity
  8
BORDER
370
     0
390
0
  6
DOT
 62
    14
100
AcDbLine
 10
-726.801924
 20
420.05123
 30
0.0
 11
653.198076
 21
420.05123
 31
0.0
  0
LINE
  5
379
100
AcDbEntity
  8
BORDER
370
     0
390
0
  6
DOT
 62
    14
100
AcDbLine
 10
-726.793567
 20
-628.3211
 30
0.0
 11
653.206433
 21
-628.3211
 31
0.0
  0
LINE
  5
37A
100
AcDbEntity
  8
BORDER
370
     0
390
0
  6
DOT
 62
    14
100
AcDbLine
 10
671.198076
 20
403.55123
 30
0.0
 11
671.206433
 21
-611.8211
 31
0.0
  0
LINE
  5
37B
100
AcDbEntity
  8
BORDER
370
     0
390
0
  6
Continuous
 62
   174
100
AcDbLine
 10
671.206433
 20
-611.8211
 30
0.0
 11
671.206433
 21
-628.3211
 31
0.0
  0
LINE
  5
37C
100
AcDbEntity
  8
BORDER
370
     0
390
0
  6
Continuous
 62
   174
100
AcDbLine
 10
653.206433
 20
-628.3211
 30
0.0
 11
671.206433
 21
-628.3211
 31
0.0
  0
LINE
  5
37D
100
AcDbEntity
  8
BORDER
370
     0
390
0
  6
Continuous
 62
   174
100
AcDbLine
 10
671.198076
 20
403.55123
 30
0.0
 11
671.198076
 21
420.05123
 31
0.0
  0
LINE
  5
37E
100
AcDbEntity
  8
BORDER
370
     0
390
0
  6
Continuous
 62
   174
100
AcDbLine
 10
653.198076
 20
420.05123
 30
0.0
 11
671.198076
 21
420.05123
 31
0.0
  0
LINE
  5
37F
100
AcDbEntity
  8
0
370
     0
390
0
  6
CENTER
 62
     1
100
AcDbLine
 10
-6.801723
 20
375.241668
 30
0.0
 11
-6.801723
 21
279.241668
 31
0.0
  0
LINE
  5
380
100
AcDbEntity
  8
0
370
     0
390
0
  6
CENTER
 62
     1
100
AcDbLine
 10
-6.856167
 20
181.52227
 30
0.0
 11
-6.856167
 21
221.659356
 31
0.0
  0
LINE
  5
381
100
AcDbEntity
  8
0
370
     0
390
0
  6
CENTER
 62
     1
100
AcDbLine
 10
-6.747279
 20
113.241668
 30
0.0
 11
-6.747279
 21
165.241668
 31
0.0
  0
LINE
  5
382
100
AcDbEntity
  8
0
370
     0
390
0
  6
CENTER
 62
     1
100
AcDbLine
 10
-6.801723
 20
98.032397
 30
0.0
 11
-6.801723
 21
29.683165
 31
0.0
  0
ARC
  5
383
100
AcDbEntity
  8
0
370
     0
390
0
  6
DASHED
 62
   174
100
AcDbCircle
 10
-6.801723
 20
532.991668
 30
0.0
 40
363.75
100
AcDbArc
 50
301.809012
 51
317.924978
  0
ARC
  5
384
100
AcDbEntity
  8
0
370
     0
390
0
  6
DASHED
 62
   174
100
AcDbCircle
 10
-6.801723
 20
532.991668
 30
0.0
 40
363.75
100
AcDbArc
 50
294.63866
 51
298.345115
  0
ARC
  5
385
100
AcDbEntity
  8
0
370
     0
390
0
  6
DASHED
 62
   174
100
AcDbCircle
 10
-6.801723
 20
532.991668
 30
0.0
 40
363.75
100
AcDbArc
 50
284.118521
 51
292.690112
  0
ARC
  5
386
100
AcDbEntity
  8
0
370
     0
390
0
  6
DASHED
 62
   174
100
AcDbCircle
 10
-6.801723
 20
532.991668
 30
0.0
 40
363.75
100
AcDbArc
 50
276.016049
 51
282.367797
  0
ARC
  5
387
100
AcDbEntity
  8
0
370
     0
390
0
  6
DASHED
 62
   174
100
AcDbCircle
 10
-6.801723
 20
532.991668
 30
0.0
 40
363.75
100
AcDbArc
 50
272.327702
 51
274.06801
  0
ARC
  5
388
100
AcDbEntity
  8
0
370
     0
390
0
  6
DASHED
 62
   174
100
AcDbCircle
 10
-6.801723
 20
532.991668
 30
0.0
 40
363.75
100
AcDbArc
 50
258.336394
 51
270.522708
  0
ARC
  5
389
100
AcDbEntity
  8
0
370
     0
390
0
  6
DASHED
 62
   174
100
AcDbCircle
 10
-6.801723
 20
532.991668
 30
0.0
 40
363.75
100
AcDbArc
 50
247.582376
 51
256.17988
  0
ARC
  5
38A
100
AcDbEntity
  8
0
370
     0
390
0
  6
DASHED
 62
   174
100
AcDbCircle
 10
-6.801723
 20
532.991668
 30
0.0
 40
363.75
100
AcDbArc
 50
241.329644
 51
245.628005
  0
ARC
  5
38B
100
AcDbEntity
  8
0
370
     0
390
0
  6
DASHED
 62
   174
100
AcDbCircle
 10
-6.801723
 20
532.991668
 30
0.0
 40
363.75
100
AcDbArc
 50
222.075022
 51
239.132779
  0
LINE
  5
38C
100
AcDbEntity
  8
0
370
     0
390
0
  6
CENTER
 62
     1
100
AcDbLine
 10
-6.801723
 20
13.396762
 30
0.0
 11
-6.801723
 21
-46.398976
 31
0.0
  0
LINE
  5
38D
100
AcDbEntity
  8
BORDER
370
     0
390
0
  6
DOT
 62
    14
100
AcDbLine
 10
-816.801924
 20
403.55123
 30
0.0
 11
-816.801657
 21
-611.864073
 31
0.0
  0
LINE
  5
38E
100
AcDbEntity
  8
BORDER
370
     0
390
0
  6
Continuous
 62
   174
100
AcDbLine
 10
-816.801924
 20
403.55123
 30
0.0
 11
-816.801924
 21
420.05123
 31
0.0
  0
LINE
  5
38F
100
AcDbEntity
  8
BORDER
370
     0
390
0
  6
Continuous
 62
   174
100
AcDbLine
 10
-726.801924
 20
420.05123
 30
0.0
 11
-816.801924
 21
420.05123
 31
0.0
  0
LINE
  5
390
100
AcDbEntity
  8
BORDER
370
     0
390
0
  6
Continuous
 62
   174
100
AcDbLine
 10
-816.801657
 20
-611.864073
 30
0.0
 11
-816.801657
 21
-628.3211
 31
0.0
  0
LINE
  5
391
100
AcDbEntity
  8
BORDER
370
     0
390
0
  6
Continuous
 62
   174
100
AcDbLine
 10
-726.793567
 20
-628.3211
 30
0.0
 11
-816.801657
 21
-628.3211
 31
0.0
  0
LINE
  5
392
100
AcDbEntity
  8
POS-HIDDEN
370
     0
390
0
  6
DOT
 62
   174
100
AcDbLine
 10
65.198277
 20
-170.758332
 30
0.0
 11
-8.880723
 21
-170.758332
 31
0.0
  0
LINE
  5
393
100
AcDbEntity
  8
POS-HIDDEN
370
     0
390
0
  6
DOT
 62
   174
100
AcDbLine
 10
-8.880723
 20
-170.758332
 30
0.0
 11
-78.801723
 21
-170.758332
 31
0.0
  0
LINE
  5
394
100
AcDbEntity
  8
0
370
     0
390
0
  6
CENTER
 62
     1
100
AcDbLine
 10
-6.801723
 20
-205.750854
 30
0.0
 11
-6.801723
 21
-150.214368
 31
0.0
  0
LINE
  5
395
100
AcDbEntity
  8
0
370
     0
390
0
  6
CENTER
 62
     1
100
AcDbLine
 10
-6.804873
 20
-64.274975
 30
0.0
 11
-6.801723
 21
-112.541198
 31
0.0
  0
LINE
  5
396
100
AcDbEntity
  8
POS-HIDDEN
370
     0
390
0
  6
DOT
 62
   174
100
AcDbLine
 10
275.198277
 20
64.241668
 30
0.0
 11
380.91241
 21
152.946358
 31
0.0
  0
TEXT
  5
397
100
AcDbEntity
  8
0
370
     0
390
0
  6
Continuous
 62
   174
100
AcDbText
 10
-359.301723
 20
361.491668
 30
0.0
 40
3.0
  1
Pilaster Line
  7
Vcadd_AGATE
100
AcDbText
  0
TEXT
  5
398
100
AcDbEntity
  8
0
370
     0
390
0
  6
Continuous
 62
   174
100
AcDbText
 10
113.198277
 20
317.630816
 30
0.0
 40
4.0
  1
10'
 50
90.0
  7
Vcadd_AGATE
100
AcDbText
  0
TEXT
  5
399
100
AcDbEntity
  8
0
370
     0
390
0
  6
Continuous
 62
   174
100
AcDbText
 10
233.198277
 20
317.630816
 30
0.0
 40
4.0
  1
20'
 50
90.0
  7
Vcadd_AGATE
100
AcDbText
  0
TEXT
  5
39A
100
AcDbEntity
  8
0
370
     0
390
0
  6
Continuous
 62
   174
100
AcDbText
 10
257.198277
 20
317.630816
 30
0.0
 40
4.0
  1
22'
 50
90.0
  7
Vcadd_AGATE
100
AcDbText
  0
TEXT
  5
39B
100
AcDbEntity
  8
0
370
     0
390
0
  6
Continuous
 62
   174
100
AcDbText
 10
-126.801723
 20
317.630816
 30
0.0
 40
4.0
  1
10'
 50
270.0
 41
-1.0
  7
Vcadd_AGATE
100
AcDbText
  0
TEXT
  5
39C
100
AcDbEntity
  8
0
370
     0
390
0
  6
Continuous
 62
   174
100
AcDbText
 10
-246.801723
 20
317.630816
 30
0.0
 40
4.0
  1
20'
 50
270.0
 41
-1.0
  7
Vcadd_AGATE
100
AcDbText
  0
TEXT
  5
39D
100
AcDbEntity
  8
0
370
     0
390
0
  6
Continuous
 62
   174
100
AcDbText
 10
-270.801723
 20
317.630816
 30
0.0
 40
4.0
  1
22'
 50
270.0
 41
-1.0
  7
Vcadd_AGATE
100
AcDbText
  0
TEXT
  5
39E
100
AcDbEntity
  8
0
370
     0
390
0
  6
Continuous
 62
   174
100
AcDbText
 10
305.198277
 20
317.630816
 30
0.0
 40
4.0
  1
26'
 50
90.0
  7
Vcadd_AGATE
100
AcDbText
  0
TEXT
  5
39F
100
AcDbEntity
  8
0
370
     0
390
0
  6
Continuous
 62
   174
100
AcDbText
 10
281.198277
 20
317.630816
 30
0.0
 40
4.0
  1
24'
 50
90.0
  7
Vcadd_AGATE
100
AcDbText
  0
TEXT
  5
3A0
100
AcDbEntity
  8
0
370
     0
390
0
  6
Continuous
 62
   174
100
AcDbText
 10
329.198277
 20
317.630816
 30
0.0
 40
4.0
  1
28'
 50
90.0
  7
Vcadd_AGATE
100
AcDbText
  0
TEXT
  5
3A1
100
AcDbEntity
  8
0
370
     0
390
0
  6
Continuous
 62
   174
100
AcDbText
 10
-318.801723
 20
317.630816
 30
0.0
 40
4.0
  1
26'
 50
270.0
 41
-1.0
  7
Vcadd_AGATE
100
AcDbText
  0
TEXT
  5
3A2
100
AcDbEntity
  8
0
370
     0
390
0
  6
Continuous
 62
   174
100
AcDbText
 10
-294.801723
 20
317.630816
 30
0.0
 40
4.0
  1
24'
 50
270.0
 41
-1.0
  7
Vcadd_AGATE
100
AcDbText
  0
TEXT
  5
3A3
100
AcDbEntity
  8
0
370
     0
390
0
  6
Continuous
 62
   174
100
AcDbText
 10
-342.801723
 20
317.630816
 30
0.0
 40
4.0
  1
28'
 50
270.0
 41
-1.0
  7
Vcadd_AGATE
100
AcDbText
  0
TEXT
  5
3A4
100
AcDbEntity
  8
TITLE BLOCK
370
     0
390
0
  6
Continuous
 62
   174
100
AcDbText
 10
553.587551
 20
-469.38556
 30
0.0
 40
5.0
  1
Front of House
  7
Vcadd_AGATE
 72
     2
 11
630.698343
 21
-469.38556
 31
0.0
100
AcDbText
  0
TEXT
  5
3A5
100
AcDbEntity
  8
0
370
     0
390
0
  6
Continuous
 62
   174
100
AcDbText
 10
-322.059425
 20
-94.014722
 30
0.0
 40
2.5
  1
136
  7
Vcadd_AGATE
 72
     1
 11
-319.636211
 21
-94.014722
 31
0.0
100
AcDbText
  0
TEXT
  5
3A6
100
AcDbEntity
  8
BORDER
370
     0
390
0
  6
Continuous
 62
   174
100
AcDbText
 10
384.698343
 20
-547.779359
 30
0.0
 40
5.0
  1
Pace University
  7
Vcadd_AGATE
100
AcDbText
  0
TEXT
  5
3A7
100
AcDbEntity
  8
BORDER
370
     0
390
0
  6
Continuous
 62
   174
100
AcDbText
 10
384.698343
 20
-557.779359
 30
0.0
 40
5.0
  1
Schimmel Center for the Arts
  7
Vcadd_AGATE
100
AcDbText
  0
TEXT
  5
3A8
100
AcDbEntity
  8
BORDER
370
     0
390
0
  6
Continuous
 62
   174
100
AcDbText
 10
384.698343
 20
-567.779359
 30
0.0
 40
5.0
  1
September 28 - October 1, 2000
  7
Vcadd_AGATE
100
AcDbText
  0
TEXT
  5
3A9
100
AcDbEntity
  8
TITLE BLOCK
370
     0
390
0
  6
Continuous
 62
   174
100
AcDbText
 10
384.698343
 20
-593.88556
 30
0.0
 40
5.0
  1
Plate #1 of 3
  7
Vcadd_AGATE
100
AcDbText
  0
ENDSEC
  0
SECTION
  2
OBJECTS
  0
DICTIONARY
  5
19
100
AcDbDictionary
280
     0
281
     1
  3
ACAD_GROUP
350
1A
  3
ACAD_MLINESTYLE
350
1B
  3
ACAD_LAYOUT
350
1E
  3
ACAD_PLOTSETTINGS
350
22
  3
ACAD_PLOTSTYLENAME
350
1F
  3
ACAD_WIPEOUT_VARS
350
23
  0
DICTIONARY
  5
1A
102
{ACAD_REACTORS
330
19
102
}
100
AcDbDictionary
280
     0
281
     1
  0
DICTIONARY
  5
1B
102
{ACAD_REACTORS
330
19
102
}
100
AcDbDictionary
280
     0
281
     1
  3
Standard
350
1C
  0
MLINESTYLE
  5
1C
102
{ACAD_REACTORS
330
1B
102
}
100
AcDbMlineStyle
  2
Standard
 70
     0
  3

 62
     0
 51
90.0
 52
90.0
 71
     2
 49
0.5
 62
   256
  6
ByLayer
 49
-0.5
 62
   256
  6
ByLayer
  0
ACDBDICTIONARYWDFLT
  5
1F
102
{ACAD_REACTORS
330
19
102
}
100
AcDbDictionary
281
     1
  3
Normal
350
1D
100
AcDbDictionaryWithDefault
340
1D
  0
ACDBPLACEHOLDER
  5
1D
102
{ACAD_REACTORS
330
1F
102
}
  0
LAYOUT
  5
20
102
{ACAD_REACTORS
330
1E
102
}
100
AcDbPlotSettings
  1

  2

  4

  6

 40
0.0
 41
0.0
 42
0.0
 43
0.0
 44
0.0
 45
0.0
 46
0.0
 47
0.0
 48
0.0
 49
0.0
140
0.0
141
0.0
142
1.0
143
1.0
 70
  1024
 72
     0
 73
     0
 74
     0
  7

 75
     0
147
1.0
148
0.0
149
0.0
100
AcDbLayout
  1
Model
 70
     0
 71
     0
 10
0.0
 20
0.0
 11
0.0
 21
0.0
 12
0.0
 22
0.0
 32
0.0
 14
0.0
 24
0.0
 34
0.0
 15
0.0
 25
0.0
 35
0.0
146
0.0
 13
0.0
 23
0.0
 33
0.0
 16
0.0
 26
0.0
 36
0.0
 17
0.0
 27
0.0
 37
0.0
 76
     0
330
A
331
0
345
0
346
0
  0
LAYOUT
  5
21
102
{ACAD_REACTORS
330
1E
102
}
100
AcDbPlotSettings
  1

  2

  4

  6

 40
0.0
 41
0.0
 42
0.0
 43
0.0
 44
0.0
 45
0.0
 46
0.0
 47
0.0
 48
0.0
 49
0.0
140
0.0
141
0.0
142
1.0
143
1.0
 70
     0
 72
     0
 73
     0
 74
     0
  7

 75
     0
147
1.0
148
0.0
149
0.0
100
AcDbLayout
  1
Layout1
 70
     0
 71
     0
 10
0.0
 20
0.0
 11
0.0
 21
0.0
 12
0.0
 22
0.0
 32
0.0
 14
0.0
 24
0.0
 34
0.0
 15
0.0
 25
0.0
 35
0.0
146
0.0
 13
0.0
 23
0.0
 33
0.0
 16
0.0
 26
0.0
 36
0.0
 17
0.0
 27
0.0
 37
0.0
 76
     0
330
B
331
0
345
0
346
0
  0
DICTIONARY
  5
1E
102
{ACAD_REACTORS
330
19
102
}
100
AcDbDictionary
280
     0
281
     1
  3
Layout1
350
21
  3
Model
350
20
  0
DICTIONARY
  5
22
102
{ACAD_REACTORS
330
19
102
}
100
AcDbDictionary
280
     0
281
     1
  0
WIPEOUTVARIABLES
  5
23
100
AcDbWipeoutVariables
 70
     1
  0
ENDSEC
  0
EOF
