  0
SECTION
  2
HEADER
  9
$ACADVER
  1
AC1015
  9
$ACADMAINTVER
 70
     6
  9
$DWGCODEPAGE
  3
ANSI_1252
  9
$INSBASE
 10
0.0
 20
0.0
 30
0.0
  9
$EXTMIN
 10
-692.131714
 20
-686.68042
 30
0.0
  9
$EXTMAX
 10
273.933838
 20
13.7893
 30
0.0
  9
$LIMMIN
 10
0.0
 20
0.0
  9
$LIMMAX
 10
0.0
 20
0.0
  9
$ORTHOMODE
 70
     0
  9
$REGENMODE
 70
     1
  9
$FILLMODE
 70
     1
  9
$QTEXTMODE
 70
     0
  9
$MIRRTEXT
 70
     1
  9
$LTSCALE
 40
1.0
  9
$ATTMODE
 70
     1
  9
$TEXTSIZE
 40
0.2
  9
$TRACEWID
 40
0.05
  9
$TEXTSTYLE
  7
Standard
  9
$CLAYER
  8
0
  9
$CELTYPE
  6
Continuous
  9
$CECOLOR
 62
   256
  9
$CELTSCALE
 40
1.0
  9
$DISPSILH
 70
     0
  9
$DIMSCALE
 40
1.0
  9
$DIMASZ
 40
0.18
  9
$DIMEXO
 40
0.0625
  9
$DIMDLI
 40
0.38
  9
$DIMRND
 40
0.0
  9
$DIMDLE
 40
0.0
  9
$DIMEXE
 40
0.18
  9
$DIMTP
 40
0.0
  9
$DIMTM
 40
0.0
  9
$DIMTXT
 40
0.18
  9
$DIMCEN
 40
0.09
  9
$DIMTSZ
 40
0.0
  9
$DIMTOL
 70
     0
  9
$DIMLIM
 70
     0
  9
$DIMTIH
 70
     1
  9
$DIMTOH
 70
     1
  9
$DIMSE1
 70
     0
  9
$DIMSE2
 70
     0
  9
$DIMTAD
 70
     0
  9
$DIMZIN
 70
     0
  9
$DIMBLK
  1

  9
$DIMASO
 70
     1
  9
$DIMSHO
 70
     1
  9
$DIMPOST
  1

  9
$DIMAPOST
  1

  9
$DIMALT
 70
     0
  9
$DIMALTD
 70
     2
  9
$DIMALTF
 40
25.4
  9
$DIMLFAC
 40
1.0
  9
$DIMTOFL
 70
     0
  9
$DIMTVP
 40
0.0
  9
$DIMTIX
 70
     0
  9
$DIMSOXD
 70
     0
  9
$DIMSAH
 70
     0
  9
$DIMBLK1
  1

  9
$DIMBLK2
  1

  9
$DIMSTYLE
  2
Standard
  9
$DIMCLRD
 70
     0
  9
$DIMCLRE
 70
     0
  9
$DIMCLRT
 70
     0
  9
$DIMTFAC
 40
1.0
  9
$DIMGAP
 40
0.09
  9
$DIMJUST
 70
     0
  9
$DIMSD1
 70
     0
  9
$DIMSD2
 70
     0
  9
$DIMTOLJ
 70
     1
  9
$DIMTZIN
 70
     0
  9
$DIMALTZ
 70
     0
  9
$DIMALTTZ
 70
     0
  9
$DIMUPT
 70
     0
  9
$DIMDEC
 70
     4
  9
$DIMTDEC
 70
     4
  9
$DIMALTU
 70
     2
  9
$DIMALTTD
 70
     2
  9
$DIMTXSTY
  7
Standard
  9
$DIMAUNIT
 70
     0
  9
$DIMADEC
 70
     0
  9
$DIMALTRND
 40
0.0
  9
$DIMAZIN
 70
     0
  9
$DIMDSEP
 70
     0
  9
$DIMATFIT
 70
     3
  9
$DIMFRAC
 70
     0
  9
$DIMLDRBLK
  1

  9
$DIMLUNIT
 70
     2
  9
$DIMLWD
 70
     0
  9
$DIMLWE
 70
     0
  9
$DIMTMOVE
 70
     0
  9
$LUNITS
 70
     2
  9
$LUPREC
 70
     4
  9
$SKETCHINC
 40
0.1
  9
$FILLETRAD
 40
0.0
  9
$AUNITS
 70
     0
  9
$AUPREC
 70
     0
  9
$MENU
  1
acad
  9
$ELEVATION
 40
0.0
  9
$PELEVATION
 40
0.0
  9
$THICKNESS
 40
0.0
  9
$LIMCHECK
 70
     0
  9
$CHAMFERA
 40
0.0
  9
$CHAMFERB
 40
0.0
  9
$CHAMFERC
 40
0.0
  9
$CHAMFERD
 40
0.0
  9
$SKPOLY
 70
     0
  9
$TDCREATE
 40
0.000000000
  9
$TDUCREATE
 40
0.000000000
  9
$TDUPDATE
 40
0.000000000
  9
$TDUUPDATE
 40
0.000000000
  9
$TDINDWG
 40
0.0000000000
  9
$TDUSRTIMER
 40
0.0000000000
  9
$USRTIMER
 70
     1
  9
$ANGBASE
 50
0.0
  9
$ANGDIR
 70
     0
  9
$PDMODE
 70
     2
  9
$PDSIZE
 40
-1.0
  9
$PLINEWID
 40
0.0
  9
$SPLFRAME
 70
     0
  9
$SPLINETYPE
 70
     6
  9
$SPLINESEGS
 70
     8
  9
$HANDSEED
  5
380
  9
$SURFTAB1
 70
     6
  9
$SURFTAB2
 70
     6
  9
$SURFTYPE
 70
     6
  9
$SURFU
 70
     6
  9
$SURFV
 70
     6
  9
$UCSBASE
  2

  9
$UCSNAME
  2

  9
$UCSORG
 10
0.0
 20
0.0
 30
0.0
  9
$UCSXDIR
 10
1.0
 20
0.0
 30
0.0
  9
$UCSYDIR
 10
0.0
 20
1.0
 30
0.0
  9
$UCSORTHOREF
  2

  9
$UCSORTHOVIEW
 70
     0
  9
$UCSORGTOP
 10
0.0
 20
0.0
 30
0.0
  9
$UCSORGBOTTOM
 10
0.0
 20
0.0
 30
0.0
  9
$UCSORGLEFT
 10
0.0
 20
0.0
 30
0.0
  9
$UCSORGRIGHT
 10
0.0
 20
0.0
 30
0.0
  9
$UCSORGFRONT
 10
0.0
 20
0.0
 30
0.0
  9
$UCSORGBACK
 10
0.0
 20
0.0
 30
0.0
  9
$PUCSBASE
  2

  9
$PUCSNAME
  2

  9
$PUCSORG
 10
0.0
 20
0.0
 30
0.0
  9
$PUCSXDIR
 10
1.0
 20
0.0
 30
0.0
  9
$PUCSYDIR
 10
0.0
 20
1.0
 30
0.0
  9
$PUCSORTHOREF
  2

  9
$PUCSORTHOVIEW
 70
     0
  9
$PUCSORGTOP
 10
0.0
 20
0.0
 30
0.0
  9
$PUCSORGBOTTOM
 10
0.0
 20
0.0
 30
0.0
  9
$PUCSORGLEFT
 10
0.0
 20
0.0
 30
0.0
  9
$PUCSORGRIGHT
 10
0.0
 20
0.0
 30
0.0
  9
$PUCSORGFRONT
 10
0.0
 20
0.0
 30
0.0
  9
$PUCSORGBACK
 10
0.0
 20
0.0
 30
0.0
  9
$USERI1
 70
     0
  9
$USERI2
 70
     0
  9
$USERI3
 70
     0
  9
$USERI4
 70
     0
  9
$USERI5
 70
     0
  9
$USERR1
 40
0.0
  9
$USERR2
 40
0.0
  9
$USERR3
 40
0.0
  9
$USERR4
 40
0.0
  9
$USERR5
 40
0.0
  9
$WORLDVIEW
 70
     1
  9
$SHADEDGE
 70
     3
  9
$SHADEDIF
 70
    70
  9
$TILEMODE
 70
     1
  9
$MAXACTVP
 70
    16
  9
$PINSBASE
 10
0.0
 20
0.0
 30
0.0
  9
$PLIMCHECK
 70
     0
  9
$PEXTMIN
 10
1.000000E+20
 20
1.000000E+20
 30
1.000000E+20
  9
$PEXTMAX
 10
-1.000000E+20
 20
-1.000000E+20
 30
-1.000000E+20
  9
$PLIMMIN
 10
0.0
 20
0.0
  9
$PLIMMAX
 10
12.0
 20
9.0
  9
$UNITMODE
 70
     0
  9
$VISRETAIN
 70
     0
  9
$PLINEGEN
 70
     1
  9
$PSLTSCALE
 70
     0
  9
$TREEDEPTH
 70
  3020
  9
$CMLSTYLE
  2
Standard
  9
$CMLJUST
 70
     0
  9
$CMLSCALE
 40
1.0
  9
$PROXYGRAPHICS
 70
     0
  9
$MEASUREMENT
 70
     0
  9
$CELWEIGHT
370
     0
  9
$ENDCAPS
280
     0
  9
$JOINSTYLE
280
     0
  9
$LWDISPLAY
290
     1
  9
$INSUNITS
 70
     0
  9
$HYPERLINKBASE
  1

  9
$STYLESHEET
  1

  9
$XEDIT
290
     1
  9
$CEPSNTYPE
380
     0
  9
$PSTYLEMODE
290
     1
  9
$FINGERPRINTGUID
  2

  9
$VERSIONGUID
  2

  9
$EXTNAMES
290
     1
  9
$PSVPSCALE
 40
0.0
  0
ENDSEC
  0
SECTION
  2
CLASSES
  0
CLASS
  1
LWPOLYLINE
  2
AcDbPolyline
  3
AutoCAD 2000
 90
        0
280
     0
281
     1
  0
CLASS
  1
IMAGE
  2
AcDbRasterImage
  3
ISM
 90
      127
280
     0
281
     1
  0
CLASS
  1
OLE2FRAME
  2
AcDbOle2Frame
  3
AutoCAD 2000
 90
        0
280
     0
281
     1
  0
CLASS
  1
HATCH
  2
AcDbHatch
  3
AutoCAD 2000
 90
        0
280
     0
281
     1
  0
CLASS
  1
DICTIONARYVAR
  2
AcDbDictionaryVar
  3
AutoCAD 2000
 90
        0
280
     0
281
     0
  0
CLASS
  1
RASTERVARIABLES
  2
AcDbRasterVariables
  3
ISM
 90
        0
280
     0
281
     0
  0
CLASS
  1
IMAGEDEF
  2
AcDbRasterImageDef
  3
ISM
 90
        0
280
     0
281
     0
  0
CLASS
  1
IMAGEDEF_REACTOR
  2
AcDbRasterImageDefReactor
  3
ISM
 90
        1
280
     0
281
     0
  0
CLASS
  1
IDBUFFER
  2
AcDbIdBuffer
  3
AutoCAD 2000
 90
        0
280
     0
281
     0
  0
CLASS
  1
SPATIAL_FILTER
  2
AcDbSpatialFilter
  3
AutoCAD 2000
 90
        0
280
     0
281
     0
  0
CLASS
  1
XRECORD
  2
AcDbXrecord
  3
AutoCAD 2000
 90
        0
280
     0
281
     0
  0
CLASS
  1
SORTENTSTABLE
  2
AcDbSortentsTable
  3
AutoCAD 2000
 90
        0
280
     0
281
     0
  0
CLASS
  1
LAYER_INDEX
  2
AcDbLayerIndex
  3
AutoCAD 2000
 90
        0
280
     0
281
     0
  0
CLASS
  1
SPATIAL_INDEX
  2
AcDbSpatialIndex
  3
AutoCAD 2000
 90
        0
280
     0
281
     0
  0
CLASS
  1
OBJECT_PTR
  2
CAseDLPNTableRecord
  3
"ASE-LPNTableRecord"
 90
        1
280
     0
281
     0
  0
CLASS
  1
LAYOUT
  2
AcDbLayout
  3
AutoCAD 2000
 90
        0
280
     0
281
     0
  0
CLASS
  1
PLOTSETTINGS
  2
AcDbPlotSettings
  3
AutoCAD 2000
 90
        0
280
     0
281
     0
  0
CLASS
  1
ACDBDICTIONARYWDFLT
  2
AcDbDictionaryWithDefault
  3
AutoCAD 2000
 90
        0
280
     0
281
     0
  0
CLASS
  1
ACDBPLACEHOLDER
  2
AcDbPlaceHolder
  3
AutoCAD 2000
 90
        0
280
     0
281
     0
  0
CLASS
  1
VBA_PROJECT
  2
AcDbVbaProject
  3
acadvba
 90
        0
280
     0
281
     0
  0
CLASS
  1
WIPEOUT
  2
AcDbWipeout
  3
WipeOut|AutoCAD Express Tool|expresstools@autodesk.com
 90
      127
280
     0
281
     1
  0
CLASS
  1
WIPEOUTVARIABLES
  2
AcDbWipeoutVariables
  3
WipeOut|AutoCAD Express Tool|expresstools@autodesk.com
 90
        0
280
     0
281
     0
  0
CLASS
  1
RTEXT
  2
RText
  3
RText|AutoCAD Express Tool|expresstools@autodesk.com
 90
        0
280
     0
281
     1
  0
CLASS
  1
ARCALIGNEDTEXT
  2
AcDbArcAlignedText
  3
ATEXT|AutoCAD Express Tool|expresstools@autodesk.com
 90
        0
280
     0
281
     1
  0
ENDSEC
  0
SECTION
  2
TABLES
  0
TABLE
  2
VPORT
  5
7
100
AcDbSymbolTable
 70
     2
  0
VPORT
  5
15
100
AcDbSymbolTableRecord
100
AcDbViewportTableRecord
  2
*ACTIVE
 70
     0
 10
0.0
 20
0.0
 11
1.0
 21
1.0
 12
6.591288
 22
4.579184
 13
0.0
 23
0.0
 14
1.0
 24
1.0
 15
0.0
 25
0.0
 16
0.0
 26
0.0
 36
1.0
 17
0.0
 27
0.0
 37
0.0
 40
9.158369
 41
0.688564
 42
50.0
 43
0.0
 44
0.0
 50
0.0
 51
0.0
 71
     0
 72
   100
 73
     1
 74
     1
 75
     0
 76
     0
 77
     0
 78
     0
281
     0
 65
     0
110
0.0
120
0.0
130
0.0
111
1.0
121
0.0
131
0.0
112
0.0
122
1.0
132
0.0
345
0
346
0
 79
     0
146
0.0
  0
VPORT
  5
37F
100
AcDbSymbolTableRecord
100
AcDbViewportTableRecord
  2
MYVPORT
 70
     0
 10
0.0
 20
0.0
 11
1.0
 21
1.0
 12
6.21
 22
9.02
 13
0.0
 23
0.0
 14
1.0
 24
1.0
 15
0.0
 25
0.0
 16
0.0
 26
0.0
 36
1.0
 17
0.0
 27
0.0
 37
0.0
 40
18.04
 41
0.688564
 42
50.0
 43
0.0
 44
0.0
 50
0.0
 51
0.0
 71
     0
 72
   100
 73
     1
 74
     1
 75
     0
 76
     0
 77
     0
 78
     0
281
     0
 65
     0
110
0.0
120
0.0
130
0.0
111
1.0
121
0.0
131
0.0
112
0.0
122
1.0
132
0.0
345
0
346
0
 79
     0
146
0.0
  0
ENDTAB
  0
TABLE
  2
LTYPE
  5
4
100
AcDbSymbolTable
 70
     6
  0
LTYPE
  5
11
100
AcDbSymbolTableRecord
100
AcDbLinetypeTableRecord
  2
ByBlock
 70
    64
  3

 72
    65
 73
     0
 40
0.0
  0
LTYPE
  5
12
100
AcDbSymbolTableRecord
100
AcDbLinetypeTableRecord
  2
ByLayer
 70
    64
  3

 72
    65
 73
     0
 40
0.0
  0
LTYPE
  5
13
100
AcDbSymbolTableRecord
100
AcDbLinetypeTableRecord
  2
Continuous
 70
    64
  3
Solid line
 72
    65
 73
     0
 40
0.0
  0
LTYPE
  5
DE
100
AcDbSymbolTableRecord
100
AcDbLinetypeTableRecord
  2
DOT
 70
    64
  3
Visual CADD Translation
 72
    65
 73
     2
 40
0.1
 49
0.0
 74
     0
 49
-0.1
 74
     0
  0
LTYPE
  5
11B
100
AcDbSymbolTableRecord
100
AcDbLinetypeTableRecord
  2
DASHED
 70
    64
  3
Visual CADD Translation
 72
    65
 73
     2
 40
0.32
 49
0.24
 74
     0
 49
-0.08
 74
     0
  0
LTYPE
  5
30C
100
AcDbSymbolTableRecord
100
AcDbLinetypeTableRecord
  2
CENTER
 70
    64
  3
Visual CADD Translation
 72
    65
 73
     4
 40
1.265
 49
0.115
 74
     0
 49
-0.07
 74
     0
 49
1.01
 74
     0
 49
-0.07
 74
     0
  0
ENDTAB
  0
TABLE
  2
LAYER
  5
2
100
AcDbSymbolTable
 70
    22
  0
LAYER
  5
14
100
AcDbSymbolTableRecord
100
AcDbLayerTableRecord
  2
0
 70
     0
 62
     7
  6
Continuous
290
     1
370
    -3
390
1D
  0
LAYER
  5
24
100
AcDbSymbolTableRecord
100
AcDbLayerTableRecord
  2
hidden positions
 70
     0
 62
     7
  6
Continuous
290
     1
370
    -3
390
1D
  0
LAYER
  5
25
100
AcDbSymbolTableRecord
100
AcDbLayerTableRecord
  2
Revealed Positions
 70
     0
 62
     7
  6
Continuous
290
     1
370
    -3
390
1D
  0
LAYER
  5
26
100
AcDbSymbolTableRecord
100
AcDbLayerTableRecord
  2
Lamps
 70
     0
 62
     7
  6
Continuous
290
     1
370
    -3
390
1D
  0
LAYER
  5
27
100
AcDbSymbolTableRecord
100
AcDbLayerTableRecord
  2
Legend
 70
     0
 62
     7
  6
Continuous
290
     1
370
    -3
390
1D
  0
LAYER
  5
28
100
AcDbSymbolTableRecord
100
AcDbLayerTableRecord
  2
Title Block
 70
     0
 62
     7
  6
Continuous
290
     1
370
    -3
390
1D
  0
LAYER
  5
29
100
AcDbSymbolTableRecord
100
AcDbLayerTableRecord
  2
Border
 70
     0
 62
     7
  6
Continuous
290
     1
370
    -3
390
1D
  0
LAYER
  5
2A
100
AcDbSymbolTableRecord
100
AcDbLayerTableRecord
  2
House Circuits
 70
     0
 62
     7
  6
Continuous
290
     1
370
    -3
390
1D
  0
LAYER
  5
2B
100
AcDbSymbolTableRecord
100
AcDbLayerTableRecord
  2
Unavailable Circuits
 70
     0
 62
     7
  6
Continuous
290
     1
370
    -3
390
1D
  0
LAYER
  5
2C
100
AcDbSymbolTableRecord
100
AcDbLayerTableRecord
  2
Set
 70
     0
 62
     7
  6
Continuous
290
     1
370
    -3
390
1D
  0
LAYER
  5
2D
100
AcDbSymbolTableRecord
100
AcDbLayerTableRecord
  2
Hash Marks
 70
     0
 62
     7
  6
Continuous
290
     1
370
    -3
390
1D
  0
LAYER
  5
2E
100
AcDbSymbolTableRecord
100
AcDbLayerTableRecord
  2
half-inch
 70
     0
 62
     7
  6
Continuous
290
     1
370
    -3
390
1D
  0
LAYER
  5
2F
100
AcDbSymbolTableRecord
100
AcDbLayerTableRecord
  2
quarter-inch
 70
     0
 62
     7
  6
Continuous
290
     1
370
    -3
390
1D
  0
LAYER
  5
30
100
AcDbSymbolTableRecord
100
AcDbLayerTableRecord
  2
Notez
 70
     0
 62
     7
  6
Continuous
290
     1
370
    -3
390
1D
  0
LAYER
  5
31
100
AcDbSymbolTableRecord
100
AcDbLayerTableRecord
  2
Area Centers
 70
     0
 62
     7
  6
Continuous
290
     1
370
    -3
390
1D
  0
LAYER
  5
32
100
AcDbSymbolTableRecord
100
AcDbLayerTableRecord
  2
Hidden Center Line
 70
     0
 62
     7
  6
Continuous
290
     1
370
    -3
390
1D
  0
LAYER
  5
33
100
AcDbSymbolTableRecord
100
AcDbLayerTableRecord
  2
hidden title block
 70
     0
 62
     7
  6
Continuous
290
     1
370
    -3
390
1D
  0
LAYER
  5
34
100
AcDbSymbolTableRecord
100
AcDbLayerTableRecord
  2
dimensions
 70
     0
 62
     7
  6
Continuous
290
     1
370
    -3
390
1D
  0
LAYER
  5
35
100
AcDbSymbolTableRecord
100
AcDbLayerTableRecord
  2
hidden building
 70
     0
 62
     7
  6
Continuous
290
     1
370
    -3
390
1D
  0
LAYER
  5
36
100
AcDbSymbolTableRecord
100
AcDbLayerTableRecord
  2
hidden area centers
 70
     0
 62
     7
  6
Continuous
290
     1
370
    -3
390
1D
  0
LAYER
  5
37
100
AcDbSymbolTableRecord
100
AcDbLayerTableRecord
  2
hidden set
 70
     0
 62
     7
  6
Continuous
290
     1
370
    -3
390
1D
  0
LAYER
  5
38
100
AcDbSymbolTableRecord
100
AcDbLayerTableRecord
  2
anne frank lamps
 70
     0
 62
     7
  6
Continuous
290
     1
370
    -3
390
1D
  0
ENDTAB
  0
TABLE
  2
STYLE
  5
3
100
AcDbSymbolTable
 70
     3
  0
STYLE
  5
17
100
AcDbSymbolTableRecord
100
AcDbTextStyleTableRecord
  2
Standard
 70
     0
 40
0.0
 41
1.0
 50
0.0
 71
     0
 42
0.0
  3
txt
  4

  0
STYLE
  5
40
100
AcDbSymbolTableRecord
100
AcDbTextStyleTableRecord
  2
Vcadd_Futura__
 70
     0
 40
0.0
 41
1.0
 50
0.0
 71
     0
 42
0.0
  3
Futura__
  4

  0
STYLE
  5
AB
100
AcDbSymbolTableRecord
100
AcDbTextStyleTableRecord
  2
Vcadd_HandPrnt
 70
     0
 40
0.0
 41
1.0
 50
0.0
 71
     0
 42
0.0
  3
HandPrnt
  4

  0
ENDTAB
  0
TABLE
  2
VIEW
  5
5
100
AcDbSymbolTable
 70
     0
  0
ENDTAB
  0
TABLE
  2
UCS
  5
6
100
AcDbSymbolTable
 70
     1
  0
UCS
  5
37E
100
AcDbSymbolTableRecord
100
AcDbUCSTableRecord
  2
MYUCS
 70
     0
 10
0.0
 20
0.0
 30
0.0
 11
0.0
 21
1.0
 31
0.0
 12
0.0
 22
0.0
 32
1.0
 79
     0
146
0.0
  0
ENDTAB
  0
TABLE
  2
APPID
  5
8
100
AcDbSymbolTable
 70
     1
  0
APPID
  5
16
100
AcDbSymbolTableRecord
100
AcDbRegAppTableRecord
  2
ACAD
 70
     0
  0
ENDTAB
  0
TABLE
  2
DIMSTYLE
  5
9
100
AcDbSymbolTable
 70
     2
100
AcDbDimStyleTable
 71
     0
  0
DIMSTYLE
105
18
100
AcDbSymbolTableRecord
100
AcDbDimStyleTableRecord
  2
Standard
 70
     0
  3

  4

 40
1.0
 41
0.18
 42
0.0625
 43
0.38
 44
0.18
 45
0.0
 46
0.0
 47
0.0
 48
0.0
 71
     0
 72
     0
 73
     1
 74
     1
 75
     0
 76
     0
 77
     0
 78
     0
 79
     0
140
0.18
141
0.09
142
0.0
143
25.4
144
1.0
145
0.0
146
1.0
147
0.09
148
0.0
170
     0
171
     2
172
     0
173
     0
174
     0
175
     0
176
     0
177
     0
178
     0
179
     0
271
     4
272
     4
273
     2
274
     2
275
     0
276
     0
277
     2
278
    46
279
     0
280
     0
281
     0
282
     0
283
     1
284
     0
285
     0
286
     0
288
     0
289
     3
340
17
341
0
342
0
343
0
344
0
371
    -2
372
    -2
  0
DIMSTYLE
105
41
100
AcDbSymbolTableRecord
100
AcDbDimStyleTableRecord
  2
VCADD_DIMSTYLE
 70
     0
  3

  4

 40
1.0
 41
0.0625
 42
0.0625
 43
0.0
 44
0.03125
 45
0.0
 46
0.0
 47
0.0
 48
0.0
 71
     0
 72
     0
 73
     0
 74
     1
 75
     0
 76
     0
 77
     2
 78
     3
 79
     0
140
3.0
141
0.0
142
0.0
143
25.4
144
1.0
145
1.0
146
1.0
147
1.0
148
0.0
170
     0
171
     0
172
     0
173
     0
174
     1
175
     0
176
     1
177
     1
178
     1
179
     0
271
     0
272
     4
273
     2
274
     2
275
     0
276
     0
277
     3
278
    46
279
     0
280
     0
281
     0
282
     0
283
     1
284
     0
285
     0
286
     0
288
     0
289
     3
340
40
341
0
342
0
343
0
344
0
371
    -2
372
    -2
  0
ENDTAB
  0
TABLE
  2
BLOCK_RECORD
  5
1
100
AcDbSymbolTable
 70
     3
  0
BLOCK_RECORD
  5
A
100
AcDbSymbolTableRecord
100
AcDbBlockTableRecord
  2
*MODEL_SPACE
340
20
  0
BLOCK_RECORD
  5
B
100
AcDbSymbolTableRecord
100
AcDbBlockTableRecord
  2
*PAPER_SPACE
340
21
  0
BLOCK_RECORD
  5
39
100
AcDbSymbolTableRecord
100
AcDbBlockTableRecord
  2
_CLOSED
340
0
  0
BLOCK_RECORD
  5
F6
100
AcDbSymbolTableRecord
100
AcDbBlockTableRecord
  2
hanging position
340
0
102
{BLKREFS
331
111
331
112
331
113
331
114
331
141
331
144
331
147
331
14A
331
153
331
155
331
15C
331
169
331
16A
331
1A2
331
1A3
331
1A4
331
1A5
331
1AC
331
1B3
331
1BA
331
1BB
331
1C2
331
1C3
331
1CE
331
1CF
331
1D6
331
1DD
331
1E4
331
1E7
331
1EA
331
1ED
331
1F0
331
1F1
331
1F4
331
1F7
331
1F8
331
1FB
331
1FE
331
201
331
25A
331
25D
331
271
331
272
331
282
331
283
331
366
331
369
331
36A
331
36D
331
370
102
}
  0
BLOCK_RECORD
  5
30E
100
AcDbSymbolTableRecord
100
AcDbBlockTableRecord
  2
centerline
340
0
102
{BLKREFS
331
362
102
}
  0
ENDTAB
  0
ENDSEC
  0
SECTION
  2
BLOCKS
  0
BLOCK
  5
D
100
AcDbEntity
  8
0
390
0
100
AcDbBlockBegin
  2
*MODEL_SPACE
 70
     0
 10
0.0
 20
0.0
 30
0.0
  3
*MODEL_SPACE
  1

  0
ENDBLK
  5
E
100
AcDbEntity
  8
0
390
0
100
AcDbBlockEnd
  0
BLOCK
  5
F
100
AcDbEntity
 67
     1
  8
0
390
0
100
AcDbBlockBegin
  2
*PAPER_SPACE
 70
     0
 10
0.0
 20
0.0
 30
0.0
  3
*PAPER_SPACE
  1

  0
ENDBLK
  5
10
100
AcDbEntity
 67
     1
  8
0
390
0
100
AcDbBlockEnd
  0
BLOCK
  5
3A
100
AcDbEntity
  8
0
390
0
100
AcDbBlockBegin
  2
_CLOSED
 70
     0
 10
0.0
 20
0.0
 30
0.0
  3
_CLOSED
  1

  0
LINE
  5
3B
100
AcDbEntity
  8
0
370
    -2
390
0
  6
ByBlock
 62
     0
100
AcDbLine
 10
-1.0
 20
0.166667
 30
0.0
 11
0.0
 21
0.0
 31
0.0
  0
LINE
  5
3C
100
AcDbEntity
  8
0
370
    -2
390
0
  6
ByBlock
 62
     0
100
AcDbLine
 10
0.0
 20
0.0
 30
0.0
 11
-1.0
 21
-0.166667
 31
0.0
  0
LINE
  5
3D
100
AcDbEntity
  8
0
370
    -2
390
0
  6
ByBlock
 62
     0
100
AcDbLine
 10
-1.0
 20
0.166667
 30
0.0
 11
-1.0
 21
-0.166667
 31
0.0
  0
LINE
  5
3E
100
AcDbEntity
  8
0
370
    -2
390
0
  6
ByBlock
 62
     0
100
AcDbLine
 10
0.0
 20
0.0
 30
0.0
 11
-1.0
 21
0.0
 31
0.0
  0
ENDBLK
  5
3F
100
AcDbEntity
  8
0
390
0
100
AcDbBlockEnd
  0
BLOCK
  5
F7
100
AcDbEntity
  8
0
390
0
100
AcDbBlockBegin
  2
hanging position
 70
     0
 10
0.0
 20
0.0
 30
0.0
  3
hanging position
  1

  0
HATCH
  5
F8
100
AcDbEntity
  8
Lamps
370
     0
390
0
  6
Continuous
 62
    94
100
AcDbHatch
 10
0.0
 20
0.0
 30
0.0
210
0.0
220
0.0
230
1.0
  2
DASH
 70
     0
 71
     0
 91
        1
 92
        1
 93
        4
 72
     1
 10
8.0543968677519615
 20
0.0287225214191267
 11
9.0036156177518478
 21
0.0287225214191267
 72
     1
 10
9.0036156177518478
 20
0.0287225214191267
 11
0.94921875
 21
8.0831193891712019
 72
     1
 10
0.94921875
 20
8.0831193891712019
 11
0.0
 21
8.0831193891712019
 72
     1
 10
0.0
 20
8.0831193891712019
 11
8.0543968677519615
 21
0.0287225214191267
 97
        0
 75
     0
 76
     1
 52
45.0
 41
6.0
 77
     0
 78
     1
 53
45.0
 43
0.0
 44
0.0
 45
-0.0000000000000549
 46
1.0606601717798212
 79
     2
 49
0.75
 49
-0.75
 98
        1
 10
0.0
 20
0.0
  0
HATCH
  5
F9
100
AcDbEntity
  8
Lamps
370
     0
390
0
  6
Continuous
 62
    94
100
AcDbHatch
 10
0.0
 20
0.0
 30
0.0
210
0.0
220
0.0
230
1.0
  2
DASH
 70
     0
 71
     0
 91
        1
 92
        1
 93
        4
 72
     1
 10
8.0543968677519615
 20
0.0287225214191267
 11
9.0036156177518478
 21
0.0287225214191267
 72
     1
 10
9.0036156177518478
 20
0.0287225214191267
 11
0.94921875
 21
-8.0256743463330622
 72
     1
 10
0.94921875
 20
-8.0256743463330622
 11
0.0
 21
-8.0256743463330622
 72
     1
 10
0.0
 20
-8.0256743463330622
 11
8.0543968677519615
 21
0.0287225214191267
 97
        0
 75
     0
 76
     1
 52
135.0
 41
6.0
 77
     0
 78
     1
 53
135.0
 43
0.0
 44
0.0
 45
-1.0606601717798212
 46
-0.0000000000001643
 79
     2
 49
0.75
 49
-0.75
 98
        1
 10
0.0
 20
0.0
  0
LINE
  5
FA
100
AcDbEntity
  8
Lamps
370
     0
390
0
  6
Continuous
 62
     7
100
AcDbLine
 10
0.949219
 20
-8.025674
 30
0.0
 11
0.949219
 21
-8.025674
 31
0.0
  0
LINE
  5
FB
100
AcDbEntity
  8
Lamps
370
     0
390
0
  6
Continuous
 62
     7
100
AcDbLine
 10
0.0
 20
-8.025674
 30
0.0
 11
0.949219
 21
-8.025674
 31
0.0
  0
LINE
  5
FC
100
AcDbEntity
  8
Lamps
370
     0
390
0
  6
Continuous
 62
     7
100
AcDbLine
 10
8.054397
 20
0.028723
 30
0.0
 11
0.0
 21
-8.025674
 31
0.0
  0
LINE
  5
FD
100
AcDbEntity
  8
Lamps
370
     0
390
0
  6
Continuous
 62
     7
100
AcDbLine
 10
0.0
 20
8.083119
 30
0.0
 11
8.054397
 21
0.028723
 31
0.0
  0
LINE
  5
FE
100
AcDbEntity
  8
Lamps
370
     0
390
0
  6
Continuous
 62
     7
100
AcDbLine
 10
0.949219
 20
8.083119
 30
0.0
 11
0.0
 21
8.083119
 31
0.0
  0
LINE
  5
FF
100
AcDbEntity
  8
Lamps
370
     0
390
0
  6
Continuous
 62
     7
100
AcDbLine
 10
9.003616
 20
0.028723
 30
0.0
 11
0.949219
 21
8.083119
 31
0.0
  0
LINE
  5
100
100
AcDbEntity
  8
Lamps
370
     0
390
0
  6
Continuous
 62
     7
100
AcDbLine
 10
0.949219
 20
-8.025674
 30
0.0
 11
9.003616
 21
0.028723
 31
0.0
  0
LINE
  5
101
100
AcDbEntity
  8
Lamps
370
     0
390
0
  6
Continuous
 62
     7
100
AcDbLine
 10
8.054397
 20
0.028723
 30
0.0
 11
9.003616
 21
0.028723
 31
0.0
  0
LINE
  5
102
100
AcDbEntity
  8
Lamps
370
     0
390
0
  6
Continuous
 62
    14
100
AcDbLine
 10
-8.054397
 20
0.028723
 30
0.0
 11
0.0
 21
8.083119
 31
0.0
  0
LINE
  5
103
100
AcDbEntity
  8
Lamps
370
     0
390
0
  6
Continuous
 62
    14
100
AcDbLine
 10
0.0
 20
-8.025674
 30
0.0
 11
-8.054397
 21
0.028723
 31
0.0
  0
LINE
  5
104
100
AcDbEntity
  8
Lamps
370
     0
390
0
  6
Continuous
 62
   174
100
AcDbLine
 10
0.0
 20
2.81887
 30
0.0
 11
0.088388
 21
2.907258
 31
0.0
  0
LINE
  5
105
100
AcDbEntity
  8
Lamps
370
     0
390
0
  6
Continuous
 62
   174
100
AcDbLine
 10
0.0
 20
-3.231087
 30
0.0
 11
0.088388
 21
-3.142698
 31
0.0
  0
LINE
  5
106
100
AcDbEntity
  8
Lamps
370
     0
390
0
  6
Continuous
 62
   174
100
AcDbLine
 10
0.0
 20
0.0
 30
0.0
 11
0.088388
 21
0.088388
 31
0.0
  0
LINE
  5
107
100
AcDbEntity
  8
Lamps
370
     0
390
0
  6
Continuous
 62
   174
100
AcDbLine
 10
0.0
 20
2.81887
 30
0.0
 11
0.088388
 21
2.730482
 31
0.0
  0
LINE
  5
108
100
AcDbEntity
  8
Lamps
370
     0
390
0
  6
Continuous
 62
   174
100
AcDbLine
 10
0.0
 20
-3.231087
 30
0.0
 11
0.088388
 21
-3.319475
 31
0.0
  0
LINE
  5
109
100
AcDbEntity
  8
Lamps
370
     0
390
0
  6
Continuous
 62
   174
100
AcDbLine
 10
0.0
 20
0.0
 30
0.0
 11
0.088388
 21
-0.088388
 31
0.0
  0
LINE
  5
10A
100
AcDbEntity
  8
Lamps
370
     0
390
0
  6
Continuous
 62
   174
100
AcDbLine
 10
0.0
 20
2.81887
 30
0.0
 11
-0.088388
 21
2.730482
 31
0.0
  0
LINE
  5
10B
100
AcDbEntity
  8
Lamps
370
     0
390
0
  6
Continuous
 62
   174
100
AcDbLine
 10
0.0
 20
-3.231087
 30
0.0
 11
-0.088388
 21
-3.319475
 31
0.0
  0
LINE
  5
10C
100
AcDbEntity
  8
Lamps
370
     0
390
0
  6
Continuous
 62
   174
100
AcDbLine
 10
0.0
 20
0.0
 30
0.0
 11
-0.088388
 21
-0.088388
 31
0.0
  0
LINE
  5
10D
100
AcDbEntity
  8
Lamps
370
     0
390
0
  6
Continuous
 62
   174
100
AcDbLine
 10
0.0
 20
2.81887
 30
0.0
 11
-0.088388
 21
2.907258
 31
0.0
  0
LINE
  5
10E
100
AcDbEntity
  8
Lamps
370
     0
390
0
  6
Continuous
 62
   174
100
AcDbLine
 10
0.0
 20
-3.231087
 30
0.0
 11
-0.088388
 21
-3.142698
 31
0.0
  0
LINE
  5
10F
100
AcDbEntity
  8
Lamps
370
     0
390
0
  6
Continuous
 62
   174
100
AcDbLine
 10
0.0
 20
0.0
 30
0.0
 11
-0.088388
 21
0.088388
 31
0.0
  0
ENDBLK
  5
110
100
AcDbEntity
  8
0
390
0
100
AcDbBlockEnd
  0
BLOCK
  5
30F
100
AcDbEntity
  8
0
390
0
100
AcDbBlockBegin
  2
centerline
 70
     0
 10
0.0
 20
0.0
 30
0.0
  3
centerline
  1

  0
HATCH
  5
310
100
AcDbEntity
  8
Lamps
370
     0
390
0
  6
Continuous
 62
   134
100
AcDbHatch
 10
0.0
 20
0.0
 30
0.0
210
0.0
220
0.0
230
1.0
  2
DOTS
 70
     0
 71
     0
 91
        1
 92
        1
 93
        7
 72
     1
 10
3.867594295181334
 20
6.4058444127440453
 11
4.906555705703795
 21
7.0551950335502625
 72
     1
 10
4.6143475109711289
 20
8.4350652098655701
 11
4.5007112557068467
 21
8.4350652098655701
 72
     1
 10
4.5007112557068467
 20
8.4350652098655701
 11
4.0514704519882798
 21
7.7292797565460205
 72
     1
 10
4.0514704519882798
 20
7.7292797565460205
 11
3.4779837662354112
 21
7.1201301217079163
 72
     1
 10
3.4779837662354112
 20
7.1201301217079163
 11
2.8150835568085313
 21
6.6538248062133789
 72
     1
 10
2.8150835568085313
 20
6.6538248062133789
 11
2.0818796688690782
 21
6.3084418177604675
 72
     1
 10
4.3059053951874375
 20
13.61363685131073
 11
4.8740866715088487
 21
14.993507027626038
 97
        0
 75
     0
 76
     1
 52
0.0
 41
12.0
 77
     0
 78
     1
 53
0.0
 43
0.0
 44
0.0
 45
0.3744
 46
0.75
 79
     2
 49
0.0
 49
-0.75
 98
        1
 10
0.0
 20
0.0
  0
HATCH
  5
311
100
AcDbEntity
  8
Lamps
370
     0
390
0
  6
Continuous
 62
    14
100
AcDbHatch
 10
0.0
 20
0.0
 30
0.0
210
0.0
220
0.0
230
1.0
  2
DOTS
 70
     0
 71
     0
 91
        1
 92
        1
 93
       26
 72
     1
 10
-2.0041587855666876
 20
10.766233921051025
 11
-1.4684445317834616
 21
10.392857313156128
 72
     1
 10
-1.338574355468154
 20
9.8733766078948975
 11
-1.338574355468154
 21
8.0551947355270386
 72
     1
 10
-1.338574355468154
 20
8.0551947355270386
 11
-1.338574355468154
 21
6.2207789421081543
 72
     1
 10
-1.338574355468154
 20
6.2207789421081543
 11
-1.338574355468154
 21
4.4025970697402954
 72
     1
 10
-1.338574355468154
 20
4.4025970697402954
 11
-1.338574355468154
 21
2.5681814253330231
 72
     1
 10
-2.5236392859369516
 20
0.7824671412818134
 11
-0.6080549117177725
 21
0.7824671412818134
 72
     1
 10
-0.6080549117177725
 20
0.7824671412818134
 11
1.3237633649259806
 21
0.7824671412818134
 72
     1
 10
1.3237633649259806
 20
0.7824671412818134
 11
3.2393475715070963
 21
0.7824671412818134
 72
     1
 10
3.2393475715070963
 20
0.7824671412818134
 11
5.1711656991392374
 21
0.7824671412818134
 72
     1
 10
5.1711656991392374
 20
0.7824671412818134
 11
7.0867499057203531
 21
0.7824671412818134
 72
     1
 10
7.0867499057203531
 20
0.7824671412818134
 11
7.4114253465086222
 21
1.8376619815826416
 72
     1
 10
7.4114253465086222
 20
1.8376619815826416
 11
7.7361001912504435
 21
2.9090904891490936
 72
     1
 10
7.7361001912504435
 20
2.9090904891490936
 11
7.5899960938841105
 21
2.9090904891490936
 72
     1
 10
7.5899960938841105
 20
2.9090904891490936
 11
7.1192171517759562
 21
2.4383112490177155
 72
     1
 10
3.9049311820417643
 20
1.2857138440012932
 11
2.5575288478285074
 21
1.2857138440012932
 72
     1
 10
2.5575288478285074
 20
1.2857138440012932
 11
1.2101262155920267
 21
1.2857138440012932
 72
     1
 10
0.0250613037496805
 20
2.7142852246761322
 11
0.0250613037496805
 21
4.3051944375038147
 72
     1
 10
0.0250613037496805
 20
4.3051944375038147
 11
0.0250613037496805
 21
5.9123374223709106
 72
     1
 10
0.0250613037496805
 20
5.9123374223709106
 11
0.0250613037496805
 21
7.5032467842102051
 72
     1
 10
0.0250613037496805
 20
7.5032467842102051
 11
0.0250613037496805
 21
9.1103894710540771
 72
     1
 10
0.0250613037496805
 20
9.1103894710540771
 11
0.0899963919073343
 21
9.8733766078948975
 72
     1
 10
0.4309054557234049
 20
10.555194735527039
 11
0.93415223993361
 21
10.766233921051025
 72
     1
 10
0.93415223993361
 20
10.766233921051025
 11
0.93415223993361
 21
10.896104097366333
 72
     1
 10
0.93415223993361
 20
10.896104097366333
 11
-0.5755879636853933
 21
10.896104097366333
 72
     1
 10
-0.5755879636853933
 20
10.896104097366333
 11
-2.0853282045572996
 21
10.896104097366333
 72
     1
 10
-2.0853282045572996
 20
10.896104097366333
 11
-2.0041587855666876
 21
10.766233921051025
 97
        0
 75
     0
 76
     1
 52
0.0
 41
12.0
 77
     0
 78
     1
 53
0.0
 43
0.0
 44
0.0
 45
0.3744
 46
0.75
 79
     2
 49
0.0
 49
-0.75
 98
        1
 10
0.0
 20
0.0
  0
ARC
  5
312
100
AcDbEntity
  8
Lamps
370
     0
390
0
  6
Continuous
 62
   174
100
AcDbCircle
 10
0.38129
 20
11.161513
 30
0.0
 40
5.537903
100
AcDbArc
 50
195.46251
 51
209.880178
  0
ARC
  5
313
100
AcDbEntity
  8
Lamps
370
     0
390
0
  6
Continuous
 62
   174
100
AcDbCircle
 10
0.280833
 20
11.06466
 30
0.0
 40
5.415669
100
AcDbArc
 50
180.340583
 51
194.75826
  0
ARC
  5
314
100
AcDbEntity
  8
Lamps
370
     0
390
0
  6
Continuous
 62
   174
100
AcDbCircle
 10
0.745656
 20
10.939622
 30
0.0
 40
5.881129
100
AcDbArc
 50
166.476044
 51
179.095429
  0
ARC
  5
315
100
AcDbEntity
  8
Lamps
370
     0
390
0
  6
Continuous
 62
   174
100
AcDbCircle
 10
3.282975
 20
10.066169
 30
0.0
 40
8.556179
100
AcDbArc
 50
155.744006
 51
164.762326
  0
HATCH
  5
316
100
AcDbEntity
  8
Lamps
370
     0
390
0
  6
Continuous
 62
    14
100
AcDbHatch
 10
0.0
 20
0.0
 30
0.0
210
0.0
220
0.0
230
1.0
  2
DOTS
 70
     0
 71
     0
 91
        1
 92
        1
 93
       26
 72
     1
 10
-1.4285708218812943
 20
10.766233921051025
 11
-0.8928565680980682
 21
10.392857313156128
 72
     1
 10
-0.7629863917827606
 20
9.8733766078948975
 11
-0.7629863917827606
 21
8.0551947355270386
 72
     1
 10
-0.7629863917827606
 20
8.0551947355270386
 11
-0.7629863917827606
 21
6.2207789421081543
 72
     1
 10
-0.7629863917827606
 20
6.2207789421081543
 11
-0.7629863917827606
 21
4.4025970697402954
 72
     1
 10
-0.7629863917827606
 20
4.4025970697402954
 11
-0.7629863917827606
 21
2.5681814253330231
 72
     1
 10
-1.9480513222515583
 20
0.7824671412818134
 11
-0.0324669480323792
 21
0.7824671412818134
 72
     1
 10
-0.0324669480323792
 20
0.7824671412818134
 11
1.8993513286113739
 21
0.7824671412818134
 72
     1
 10
1.8993513286113739
 20
0.7824671412818134
 11
3.8149355351924896
 21
0.7824671412818134
 72
     1
 10
3.8149355351924896
 20
0.7824671412818134
 11
5.7467536628246307
 21
0.7824671412818134
 72
     1
 10
5.7467536628246307
 20
0.7824671412818134
 11
7.6623378694057465
 21
0.7824671412818134
 72
     1
 10
7.6623378694057465
 20
0.7824671412818134
 11
7.9870133101940155
 21
1.8376619815826416
 72
     1
 10
7.9870133101940155
 20
1.8376619815826416
 11
8.3116881549358368
 21
2.9090904891490936
 72
     1
 10
8.3116881549358368
 20
2.9090904891490936
 11
8.1655840575695038
 21
2.9090904891490936
 72
     1
 10
8.1655840575695038
 20
2.9090904891490936
 11
7.6948051154613495
 21
2.4383112490177155
 72
     1
 10
4.4805191457271576
 20
1.2857138440012932
 11
3.1331168115139008
 21
1.2857138440012932
 72
     1
 10
3.1331168115139008
 20
1.2857138440012932
 11
1.78571417927742
 21
1.2857138440012932
 72
     1
 10
0.6006492674350739
 20
2.7142852246761322
 11
0.6006492674350739
 21
4.3051944375038147
 72
     1
 10
0.6006492674350739
 20
4.3051944375038147
 11
0.6006492674350739
 21
5.9123374223709106
 72
     1
 10
0.6006492674350739
 20
5.9123374223709106
 11
0.6006492674350739
 21
7.5032467842102051
 72
     1
 10
0.6006492674350739
 20
7.5032467842102051
 11
0.6006492674350739
 21
9.1103894710540771
 72
     1
 10
0.6006492674350739
 20
9.1103894710540771
 11
0.6655843555927277
 21
9.8733766078948975
 72
     1
 10
1.0064934194087982
 20
10.555194735527039
 11
1.5097402036190033
 21
10.766233921051025
 72
     1
 10
1.5097402036190033
 20
10.766233921051025
 11
1.5097402036190033
 21
10.896104097366333
 72
     1
 10
1.5097402036190033
 20
10.896104097366333
 11
0.0
 21
10.896104097366333
 72
     1
 10
0.0
 20
10.896104097366333
 11
-1.5097402408719063
 21
10.896104097366333
 72
     1
 10
-1.5097402408719063
 20
10.896104097366333
 11
-1.4285708218812943
 21
10.766233921051025
 97
        0
 75
     0
 76
     1
 52
0.0
 41
96.0
 77
     0
 78
     1
 53
0.0
 43
0.0
 44
0.0
 45
2.9951999999999996
 46
6.0
 79
     2
 49
0.0
 49
-6.0
 98
        1
 10
0.0
 20
0.0
  0
ARC
  5
317
100
AcDbEntity
  8
Lamps
370
     0
390
0
  6
Continuous
 62
   174
100
AcDbCircle
 10
0.843702
 20
9.340589
 30
0.0
 40
7.135678
100
AcDbArc
 50
94.471854
 51
110.685984
  0
ARC
  5
318
100
AcDbEntity
  8
Lamps
370
     0
390
0
  6
Continuous
 62
   174
100
AcDbCircle
 10
0.644067
 20
10.450054
 30
0.0
 40
6.03071
100
AcDbArc
 50
112.635414
 51
130.644145
  0
ARC
  5
319
100
AcDbEntity
  8
Lamps
370
     0
390
0
  6
Continuous
 62
   174
100
AcDbCircle
 10
1.170375
 20
9.972982
 30
0.0
 40
6.736097
100
AcDbArc
 50
131.397791
 51
147.612026
  0
ARC
  5
31A
100
AcDbEntity
  8
Lamps
370
     0
390
0
  6
Continuous
 62
   174
100
AcDbCircle
 10
0.604765
 20
11.934311
 30
0.0
 40
6.142136
100
AcDbArc
 50
215.099461
 51
234.900536
  0
ARC
  5
31B
100
AcDbEntity
  8
Lamps
370
     0
390
0
  6
Continuous
 62
   174
100
AcDbCircle
 10
0.661959
 20
12.326404
 30
0.0
 40
6.498272
100
AcDbArc
 50
236.475993
 51
254.484723
  0
ARC
  5
31C
100
AcDbEntity
  8
Lamps
370
     0
390
0
  6
Continuous
 62
   174
100
AcDbCircle
 10
1.045472
 20
14.076811
 30
0.0
 40
8.288067
100
AcDbArc
 50
255.16697
 51
269.584645
  0
ARC
  5
31D
100
AcDbEntity
  8
Lamps
370
     0
390
0
  6
Continuous
 62
   174
100
AcDbCircle
 10
0.840883
 20
17.088924
 30
0.0
 40
11.300887
100
AcDbArc
 50
270.732673
 51
279.750966
  0
ARC
  5
31E
100
AcDbEntity
  8
Lamps
370
     0
390
0
  6
Continuous
 62
   174
100
AcDbCircle
 10
0.717146
 20
16.882699
 30
0.0
 40
11.119705
100
AcDbArc
 50
280.559324
 51
289.577652
  0
LINE
  5
31F
100
AcDbEntity
  8
Lamps
370
     0
390
0
  6
Continuous
 62
   174
100
AcDbLine
 10
4.443182
 20
6.405844
 30
0.0
 11
5.482144
 21
7.055195
 31
0.0
  0
ARC
  5
320
100
AcDbEntity
  8
Lamps
370
     0
390
0
  6
Continuous
 62
   174
100
AcDbCircle
 10
-3.412482
 20
5.892499
 30
0.0
 40
8.970297
100
AcDbArc
 50
7.447413
 51
16.465787
  0
ARC
  5
321
100
AcDbEntity
  8
Lamps
370
     0
390
0
  6
Continuous
 62
   174
100
AcDbCircle
 10
1.079543
 20
10.68145
 30
0.0
 40
4.648984
100
AcDbArc
 50
270.040042
 51
289.841102
  0
ARC
  5
322
100
AcDbEntity
  8
Lamps
370
     0
390
0
  6
Continuous
 62
   174
100
AcDbCircle
 10
1.090003
 20
10.62191
 30
0.0
 40
4.589448
100
AcDbArc
 50
248.318962
 51
269.909983
  0
ARC
  5
323
100
AcDbEntity
  8
Lamps
370
     0
390
0
  6
Continuous
 62
   174
100
AcDbCircle
 10
1.236279
 20
10.811129
 30
0.0
 40
4.819773
100
AcDbArc
 50
225.943067
 51
247.534076
  0
ARC
  5
324
100
AcDbEntity
  8
Lamps
370
     0
390
0
  6
Continuous
 62
   174
100
AcDbCircle
 10
1.920066
 20
10.94028
 30
0.0
 40
5.40302
100
AcDbArc
 50
200.089433
 51
221.680465
  0
ARC
  5
325
100
AcDbEntity
  8
Lamps
370
     0
390
0
  6
Continuous
 62
   174
100
AcDbCircle
 10
2.480346
 20
11.122138
 30
0.0
 40
5.991716
100
AcDbArc
 50
180.081297
 51
199.882358
  0
ARC
  5
326
100
AcDbEntity
  8
Lamps
370
     0
390
0
  6
Continuous
 62
   174
100
AcDbCircle
 10
2.650432
 20
11.119303
 30
0.0
 40
6.161799
100
AcDbArc
 50
163.838482
 51
180.05269
  0
ARC
  5
327
100
AcDbEntity
  8
Lamps
370
     0
390
0
  6
Continuous
 62
   174
100
AcDbCircle
 10
2.074123
 20
11.265508
 30
0.0
 40
5.567605
100
AcDbArc
 50
145.62407
 51
163.632803
  0
ARC
  5
328
100
AcDbEntity
  8
Lamps
370
     0
390
0
  6
Continuous
 62
   174
100
AcDbCircle
 10
1.237725
 20
11.81711
 30
0.0
 40
4.56587
100
AcDbArc
 50
123.819988
 51
145.410959
  0
ARC
  5
329
100
AcDbEntity
  8
Lamps
370
     0
390
0
  6
Continuous
 62
   174
100
AcDbCircle
 10
0.900603
 20
11.586106
 30
0.0
 40
4.588382
100
AcDbArc
 50
104.292524
 51
118.710328
  0
ARC
  5
32A
100
AcDbEntity
  8
Lamps
370
     0
390
0
  6
Continuous
 62
   174
100
AcDbCircle
 10
0.988618
 20
11.040188
 30
0.0
 40
5.139369
100
AcDbArc
 50
91.121952
 51
103.740884
  0
ARC
  5
32B
100
AcDbEntity
  8
Lamps
370
     0
390
0
  6
Continuous
 62
   174
100
AcDbCircle
 10
0.886928
 20
11.242406
 30
0.0
 40
4.936166
100
AcDbArc
 50
70.186799
 51
89.987709
  0
ARC
  5
32C
100
AcDbEntity
  8
Lamps
370
     0
390
0
  6
Continuous
 62
   174
100
AcDbCircle
 10
0.97566
 20
11.702038
 30
0.0
 40
4.474251
100
AcDbArc
 50
47.669704
 51
69.260709
  0
ARC
  5
32D
100
AcDbEntity
  8
Lamps
370
     0
390
0
  6
Continuous
 62
   174
100
AcDbCircle
 10
1.708644
 20
12.568048
 30
0.0
 40
3.340693
100
AcDbArc
 50
18.239254
 51
46.961415
  0
LINE
  5
32E
100
AcDbEntity
  8
Lamps
370
     0
390
0
  6
Continuous
 62
   174
100
AcDbLine
 10
4.881493
 20
13.613637
 30
0.0
 11
5.449675
 21
14.993507
 31
0.0
  0
ARC
  5
32F
100
AcDbEntity
  8
Lamps
370
     0
390
0
  6
Continuous
 62
   174
100
AcDbCircle
 10
3.876469
 20
13.931982
 30
0.0
 40
1.897844
100
AcDbArc
 50
34.009632
 51
59.172621
  0
ARC
  5
330
100
AcDbEntity
  8
Lamps
370
     0
390
0
  6
Continuous
 62
   174
100
AcDbCircle
 10
4.277212
 20
14.384381
 30
0.0
 40
1.308826
100
AcDbArc
 50
64.094341
 51
69.50855
  0
ARC
  5
331
100
AcDbEntity
  8
Lamps
370
     0
390
0
  6
Continuous
 62
   174
100
AcDbCircle
 10
-0.21207
 20
4.090734
 30
0.0
 40
12.537138
100
AcDbArc
 50
66.757457
 51
75.775847
  0
ARC
  5
332
100
AcDbEntity
  8
Lamps
370
     0
390
0
  6
Continuous
 62
   174
100
AcDbCircle
 10
0.809598
 20
7.703144
 30
0.0
 40
8.785038
100
AcDbArc
 50
76.445786
 51
89.065202
  0
ARC
  5
333
100
AcDbEntity
  8
Lamps
370
     0
390
0
  6
Continuous
 62
   174
100
AcDbCircle
 10
1.048182
 20
11.32698
 30
0.0
 40
5.160912
100
AcDbArc
 50
91.057629
 51
94.667234
  0
ARC
  5
334
100
AcDbEntity
  8
Lamps
370
     0
390
0
  6
Continuous
 62
   174
100
AcDbCircle
 10
0.200165
 20
21.872772
 30
0.0
 40
5.418929
100
AcDbArc
 50
270.921731
 51
274.530938
  0
LINE
  5
335
100
AcDbEntity
  8
Lamps
370
     0
390
0
  6
Continuous
 62
   174
100
AcDbLine
 10
-1.428571
 20
10.766234
 30
0.0
 11
-0.892857
 21
10.392857
 31
0.0
  0
ARC
  5
336
100
AcDbEntity
  8
Lamps
370
     0
390
0
  6
Continuous
 62
   174
100
AcDbCircle
 10
-2.095411
 20
9.883781
 30
0.0
 40
1.30587
100
AcDbArc
 50
13.925531
 51
22.944367
  0
ARC
  5
337
100
AcDbEntity
  8
Lamps
370
     0
390
0
  6
Continuous
 62
   174
100
AcDbCircle
 10
-5.94835
 20
9.005135
 30
0.0
 40
5.257551
100
AcDbArc
 50
9.505473
 51
13.114392
  0
ARC
  5
338
100
AcDbEntity
  8
Lamps
370
     0
390
0
  6
Continuous
 62
   174
100
AcDbCircle
 10
-2.632322
 20
2.522657
 30
0.0
 40
1.86989
100
AcDbArc
 50
291.465545
 51
361.395058
  0
LINE
  5
339
100
AcDbEntity
  8
Lamps
370
     0
390
0
  6
Continuous
 62
   174
100
AcDbLine
 10
8.165584
 20
2.90909
 30
0.0
 11
7.694805
 21
2.438311
 31
0.0
  0
ARC
  5
33A
100
AcDbEntity
  8
Lamps
370
     0
390
0
  6
Continuous
 62
   174
100
AcDbCircle
 10
4.811514
 20
5.99133
 30
0.0
 40
4.57573
100
AcDbArc
 50
287.468516
 51
309.059489
  0
ARC
  5
33B
100
AcDbEntity
  8
Lamps
370
     0
390
0
  6
Continuous
 62
   174
100
AcDbCircle
 10
3.532845
 20
10.455901
 30
0.0
 40
9.219025
100
AcDbArc
 50
275.900167
 51
286.719697
  0
ARC
  5
33C
100
AcDbEntity
  8
Lamps
370
     0
390
0
  6
Continuous
 62
   174
100
AcDbCircle
 10
2.635822
 20
6.250418
 30
0.0
 40
5.03696
100
AcDbArc
 50
253.067476
 51
260.283456
  0
ARC
  5
33D
100
AcDbEntity
  8
Lamps
370
     0
390
0
  6
Continuous
 62
   174
100
AcDbCircle
 10
3.237016
 20
3.115199
 30
0.0
 40
2.666676
100
AcDbArc
 50
188.646759
 51
219.14357
  0
ARC
  5
33E
100
AcDbEntity
  8
Lamps
370
     0
390
0
  6
Continuous
 62
   174
100
AcDbCircle
 10
3.531296
 20
8.866657
 30
0.0
 40
3.037398
100
AcDbArc
 50
146.226183
 51
160.643714
  0
LINE
  5
33F
100
AcDbEntity
  8
Lamps
370
     0
390
0
  6
Continuous
 62
   174
100
AcDbLine
 10
1.006493
 20
10.555195
 30
0.0
 11
1.50974
 21
10.766234
 31
0.0
  0
LINE
  5
340
100
AcDbEntity
  8
Lamps
370
     0
390
0
  6
Continuous
 62
   174
100
AcDbLine
 10
-0.762986
 20
9.873377
 30
0.0
 11
-0.762986
 21
8.055195
 31
0.0
  0
LINE
  5
341
100
AcDbEntity
  8
Lamps
370
     0
390
0
  6
Continuous
 62
   174
100
AcDbLine
 10
-0.762986
 20
8.055195
 30
0.0
 11
-0.762986
 21
6.220779
 31
0.0
  0
LINE
  5
342
100
AcDbEntity
  8
Lamps
370
     0
390
0
  6
Continuous
 62
   174
100
AcDbLine
 10
-0.762986
 20
6.220779
 30
0.0
 11
-0.762986
 21
4.402597
 31
0.0
  0
LINE
  5
343
100
AcDbEntity
  8
Lamps
370
     0
390
0
  6
Continuous
 62
   174
100
AcDbLine
 10
-0.762986
 20
4.402597
 30
0.0
 11
-0.762986
 21
2.568181
 31
0.0
  0
LINE
  5
344
100
AcDbEntity
  8
Lamps
370
     0
390
0
  6
Continuous
 62
   174
100
AcDbLine
 10
-1.948051
 20
0.782467
 30
0.0
 11
-0.032467
 21
0.782467
 31
0.0
  0
LINE
  5
345
100
AcDbEntity
  8
Lamps
370
     0
390
0
  6
Continuous
 62
   174
100
AcDbLine
 10
-0.032467
 20
0.782467
 30
0.0
 11
1.899351
 21
0.782467
 31
0.0
  0
LINE
  5
346
100
AcDbEntity
  8
Lamps
370
     0
390
0
  6
Continuous
 62
   174
100
AcDbLine
 10
1.899351
 20
0.782467
 30
0.0
 11
3.814936
 21
0.782467
 31
0.0
  0
LINE
  5
347
100
AcDbEntity
  8
Lamps
370
     0
390
0
  6
Continuous
 62
   174
100
AcDbLine
 10
3.814936
 20
0.782467
 30
0.0
 11
5.746754
 21
0.782467
 31
0.0
  0
LINE
  5
348
100
AcDbEntity
  8
Lamps
370
     0
390
0
  6
Continuous
 62
   174
100
AcDbLine
 10
5.746754
 20
0.782467
 30
0.0
 11
7.662338
 21
0.782467
 31
0.0
  0
LINE
  5
349
100
AcDbEntity
  8
Lamps
370
     0
390
0
  6
Continuous
 62
   174
100
AcDbLine
 10
7.662338
 20
0.782467
 30
0.0
 11
7.987013
 21
1.837662
 31
0.0
  0
LINE
  5
34A
100
AcDbEntity
  8
Lamps
370
     0
390
0
  6
Continuous
 62
   174
100
AcDbLine
 10
7.987013
 20
1.837662
 30
0.0
 11
8.311688
 21
2.90909
 31
0.0
  0
LINE
  5
34B
100
AcDbEntity
  8
Lamps
370
     0
390
0
  6
Continuous
 62
   174
100
AcDbLine
 10
8.311688
 20
2.90909
 30
0.0
 11
8.165584
 21
2.90909
 31
0.0
  0
LINE
  5
34C
100
AcDbEntity
  8
Lamps
370
     0
390
0
  6
Continuous
 62
   174
100
AcDbLine
 10
4.480519
 20
1.285714
 30
0.0
 11
3.133117
 21
1.285714
 31
0.0
  0
LINE
  5
34D
100
AcDbEntity
  8
Lamps
370
     0
390
0
  6
Continuous
 62
   174
100
AcDbLine
 10
3.133117
 20
1.285714
 30
0.0
 11
1.785714
 21
1.285714
 31
0.0
  0
LINE
  5
34E
100
AcDbEntity
  8
Lamps
370
     0
390
0
  6
Continuous
 62
   174
100
AcDbLine
 10
0.600649
 20
2.714285
 30
0.0
 11
0.600649
 21
4.305194
 31
0.0
  0
LINE
  5
34F
100
AcDbEntity
  8
Lamps
370
     0
390
0
  6
Continuous
 62
   174
100
AcDbLine
 10
0.600649
 20
4.305194
 30
0.0
 11
0.600649
 21
5.912337
 31
0.0
  0
LINE
  5
350
100
AcDbEntity
  8
Lamps
370
     0
390
0
  6
Continuous
 62
   174
100
AcDbLine
 10
0.600649
 20
5.912337
 30
0.0
 11
0.600649
 21
7.503247
 31
0.0
  0
LINE
  5
351
100
AcDbEntity
  8
Lamps
370
     0
390
0
  6
Continuous
 62
   174
100
AcDbLine
 10
0.600649
 20
7.503247
 30
0.0
 11
0.600649
 21
9.110389
 31
0.0
  0
LINE
  5
352
100
AcDbEntity
  8
Lamps
370
     0
390
0
  6
Continuous
 62
   174
100
AcDbLine
 10
0.600649
 20
9.110389
 30
0.0
 11
0.665584
 21
9.873377
 31
0.0
  0
LINE
  5
353
100
AcDbEntity
  8
Lamps
370
     0
390
0
  6
Continuous
 62
   174
100
AcDbLine
 10
1.50974
 20
10.766234
 30
0.0
 11
1.50974
 21
10.896104
 31
0.0
  0
LINE
  5
354
100
AcDbEntity
  8
Lamps
370
     0
390
0
  6
Continuous
 62
   174
100
AcDbLine
 10
1.50974
 20
10.896104
 30
0.0
 11
0.0
 21
10.896104
 31
0.0
  0
LINE
  5
355
100
AcDbEntity
  8
Lamps
370
     0
390
0
  6
Continuous
 62
   174
100
AcDbLine
 10
0.0
 20
10.896104
 30
0.0
 11
-1.50974
 21
10.896104
 31
0.0
  0
POLYLINE
  5
356
100
AcDbEntity
  8
Lamps
370
     0
390
0
  6
Continuous
 62
   134
100
AcDb2dPolyline
 66
     1
 10
0.0
 20
0.0
 30
0.0
 70
   128
  0
VERTEX
  5
357
100
AcDbEntity
  8
Lamps
370
     0
390
0
  6
Continuous
 62
   134
100
AcDbVertex
100
AcDb2dVertex
 10
2.657468
 20
6.308442
 30
0.0
  0
VERTEX
  5
358
100
AcDbEntity
  8
Lamps
370
     0
390
0
  6
Continuous
 62
   134
100
AcDbVertex
100
AcDb2dVertex
 10
3.390672
 20
6.653825
 30
0.0
  0
VERTEX
  5
359
100
AcDbEntity
  8
Lamps
370
     0
390
0
  6
Continuous
 62
   134
100
AcDbVertex
100
AcDb2dVertex
 10
4.053572
 20
7.12013
 30
0.0
  0
VERTEX
  5
35A
100
AcDbEntity
  8
Lamps
370
     0
390
0
  6
Continuous
 62
   134
100
AcDbVertex
100
AcDb2dVertex
 10
4.627058
 20
7.72928
 30
0.0
  0
VERTEX
  5
35B
100
AcDbEntity
  8
Lamps
370
     0
390
0
  6
Continuous
 62
   134
100
AcDbVertex
100
AcDb2dVertex
 10
5.076299
 20
8.435065
 30
0.0
  0
VERTEX
  5
35C
100
AcDbEntity
  8
Lamps
370
     0
390
0
  6
Continuous
 62
   134
100
AcDbVertex
100
AcDb2dVertex
 10
5.189935
 20
8.435065
 30
0.0
  0
SEQEND
  5
35D
100
AcDbEntity
  8
Lamps
370
     0
390
0
  6
Continuous
 62
   134
  0
LINE
  5
35E
100
AcDbEntity
  8
Lamps
370
     0
390
0
  6
Continuous
 62
   134
100
AcDbLine
 10
-1.50974
 20
10.896104
 30
0.0
 11
-1.428571
 21
10.766234
 31
0.0
  0
HATCH
  5
35F
100
AcDbEntity
  8
Lamps
370
     0
390
0
  6
Continuous
 62
     1
100
AcDbHatch
 10
0.0
 20
0.0
 30
0.0
210
0.0
220
0.0
230
1.0
  2
DOTS
 70
     0
 71
     0
 91
        1
 92
        1
 93
        7
 72
     1
 10
4.4431822588667274
 20
6.4058444127440453
 11
5.4821436693891883
 21
7.0551950335502625
 72
     1
 10
5.1899354746565223
 20
8.4350652098655701
 11
5.07629921939224
 21
8.4350652098655701
 72
     1
 10
5.07629921939224
 20
8.4350652098655701
 11
4.6270584156736732
 21
7.7292797565460205
 72
     1
 10
4.6270584156736732
 20
7.7292797565460205
 11
4.0535717299208045
 21
7.1201301217079163
 72
     1
 10
4.0535717299208045
 20
7.1201301217079163
 11
3.3906715204939246
 21
6.6538248062133789
 72
     1
 10
3.3906715204939246
 20
6.6538248062133789
 11
2.6574676325544715
 21
6.3084418177604675
 72
     1
 10
4.8814933588728309
 20
13.61363685131073
 11
5.449674635194242
 21
14.993507027626038
 97
        0
 75
     0
 76
     1
 52
0.0
 41
4.0
 77
     0
 78
     1
 53
0.0
 43
0.0
 44
0.0
 45
0.1248
 46
0.25
 79
     2
 49
0.0
 49
-0.25
 98
        1
 10
0.0
 20
0.0
  0
HATCH
  5
360
100
AcDbEntity
  8
Lamps
370
     0
390
0
  6
Continuous
 62
     1
100
AcDbHatch
 10
0.0
 20
0.0
 30
0.0
210
0.0
220
0.0
230
1.0
  2
DOTS
 70
     0
 71
     0
 91
        1
 92
        1
 93
       26
 72
     1
 10
-1.4285708218812943
 20
10.766233921051025
 11
-0.8928565680980682
 21
10.392857313156128
 72
     1
 10
-0.7629863917827606
 20
9.8733766078948975
 11
-0.7629863917827606
 21
8.0551947355270386
 72
     1
 10
-0.7629863917827606
 20
8.0551947355270386
 11
-0.7629863917827606
 21
6.2207789421081543
 72
     1
 10
-0.7629863917827606
 20
6.2207789421081543
 11
-0.7629863917827606
 21
4.4025970697402954
 72
     1
 10
-0.7629863917827606
 20
4.4025970697402954
 11
-0.7629863917827606
 21
2.5681814253330231
 72
     1
 10
-1.9480513222515583
 20
0.7824671412818134
 11
-0.0324669480323792
 21
0.7824671412818134
 72
     1
 10
-0.0324669480323792
 20
0.7824671412818134
 11
1.8993513286113739
 21
0.7824671412818134
 72
     1
 10
1.8993513286113739
 20
0.7824671412818134
 11
3.8149355351924896
 21
0.7824671412818134
 72
     1
 10
3.8149355351924896
 20
0.7824671412818134
 11
5.7467536628246307
 21
0.7824671412818134
 72
     1
 10
5.7467536628246307
 20
0.7824671412818134
 11
7.6623378694057465
 21
0.7824671412818134
 72
     1
 10
7.6623378694057465
 20
0.7824671412818134
 11
7.9870133101940155
 21
1.8376619815826416
 72
     1
 10
7.9870133101940155
 20
1.8376619815826416
 11
8.3116881549358368
 21
2.9090904891490936
 72
     1
 10
8.3116881549358368
 20
2.9090904891490936
 11
8.1655840575695038
 21
2.9090904891490936
 72
     1
 10
8.1655840575695038
 20
2.9090904891490936
 11
7.6948051154613495
 21
2.4383112490177155
 72
     1
 10
4.4805191457271576
 20
1.2857138440012932
 11
3.1331168115139008
 21
1.2857138440012932
 72
     1
 10
3.1331168115139008
 20
1.2857138440012932
 11
1.78571417927742
 21
1.2857138440012932
 72
     1
 10
0.6006492674350739
 20
2.7142852246761322
 11
0.6006492674350739
 21
4.3051944375038147
 72
     1
 10
0.6006492674350739
 20
4.3051944375038147
 11
0.6006492674350739
 21
5.9123374223709106
 72
     1
 10
0.6006492674350739
 20
5.9123374223709106
 11
0.6006492674350739
 21
7.5032467842102051
 72
     1
 10
0.6006492674350739
 20
7.5032467842102051
 11
0.6006492674350739
 21
9.1103894710540771
 72
     1
 10
0.6006492674350739
 20
9.1103894710540771
 11
0.6655843555927277
 21
9.8733766078948975
 72
     1
 10
1.0064934194087982
 20
10.555194735527039
 11
1.5097402036190033
 21
10.766233921051025
 72
     1
 10
1.5097402036190033
 20
10.766233921051025
 11
1.5097402036190033
 21
10.896104097366333
 72
     1
 10
1.5097402036190033
 20
10.896104097366333
 11
0.0
 21
10.896104097366333
 72
     1
 10
0.0
 20
10.896104097366333
 11
-1.5097402408719063
 21
10.896104097366333
 72
     1
 10
-1.5097402408719063
 20
10.896104097366333
 11
-1.4285708218812943
 21
10.766233921051025
 97
        0
 75
     0
 76
     1
 52
0.0
 41
4.0
 77
     0
 78
     1
 53
0.0
 43
0.0
 44
0.0
 45
0.1248
 46
0.25
 79
     2
 49
0.0
 49
-0.25
 98
        1
 10
0.0
 20
0.0
  0
ENDBLK
  5
361
100
AcDbEntity
  8
0
390
0
100
AcDbBlockEnd
  0
ENDSEC
  0
SECTION
  2
ENTITIES
  0
VIEWPORT
  5
42
100
AcDbEntity
 67
     1
  8
0
390
0
  6
Continuous
 62
     0
100
AcDbViewport
 10
4.5
 20
3.259162
 30
0.0
 40
12.857143
 41
9.311892
 68
     1
 69
     1
 12
762.9316
 22
546.5183
 13
1169.457242
 23
377.488
 14
0.5
 24
0.5
 15
12.0
 25
12.0
 16
0.0
 26
0.0
 36
1.0
 17
0.0
 27
0.0
 37
0.0
 42
50.0
 43
-55.0
 44
-55.0
 45
1084.5
 50
0.0
 51
0.0
 72
   500
 90
        0
340
0
  1

281
     0
 71
     1
 74
     0
110
0.0
120
0.0
130
0.0
111
1.0
121
0.0
131
0.0
112
0.0
122
1.0
132
0.0
345
0
346
0
 79
     0
146
0.0
  0
ARC
  5
43
100
AcDbEntity
  8
Border
370
    30
390
0
  6
Continuous
 62
    14
100
AcDbCircle
 10
-645.631733
 20
7.7893
 30
0.0
 40
6.0
100
AcDbArc
 50
90.0
 51
180.0
  0
ARC
  5
44
100
AcDbEntity
  8
Border
370
     0
390
0
  6
Continuous
 62
   174
100
AcDbCircle
 10
-648.631733
 20
1.7893
 30
0.0
 40
6.0
100
AcDbArc
 50
90.0
 51
180.0
  0
ARC
  5
45
100
AcDbEntity
  8
Border
370
    30
390
0
  6
Continuous
 62
    14
100
AcDbCircle
 10
-648.631733
 20
1.7893
 30
0.0
 40
7.5
100
AcDbArc
 50
90.0
 51
180.0
  0
ARC
  5
46
100
AcDbEntity
  8
Border
370
     0
390
0
  6
Continuous
 62
   174
100
AcDbCircle
 10
-645.631733
 20
7.7893
 30
0.0
 40
4.5
100
AcDbArc
 50
90.0
 51
180.0
  0
ARC
  5
47
100
AcDbEntity
  8
Border
370
     0
390
0
  6
Continuous
 62
   174
100
AcDbCircle
 10
-645.631733
 20
-680.680422
 30
0.0
 40
4.5
100
AcDbArc
 50
180.0
 51
270.0
  0
ARC
  5
48
100
AcDbEntity
  8
Border
370
    30
390
0
  6
Continuous
 62
    14
100
AcDbCircle
 10
-645.631733
 20
-680.680422
 30
0.0
 40
6.0
100
AcDbArc
 50
180.0
 51
270.0
  0
ARC
  5
49
100
AcDbEntity
  8
Border
370
     0
390
0
  6
Continuous
 62
   174
100
AcDbCircle
 10
-648.631733
 20
-674.680422
 30
0.0
 40
6.0
100
AcDbArc
 50
180.0
 51
270.0
  0
ARC
  5
4A
100
AcDbEntity
  8
Border
370
    30
390
0
  6
Continuous
 62
    14
100
AcDbCircle
 10
-648.631733
 20
-674.680422
 30
0.0
 40
7.5
100
AcDbArc
 50
180.0
 51
270.0
  0
LINE
  5
4B
100
AcDbEntity
  8
Border
370
     0
390
0
  6
Continuous
 62
   174
100
AcDbLine
 10
-650.131733
 20
7.7893
 30
0.0
 11
-650.131733
 21
-680.680422
 31
0.0
  0
LINE
  5
4C
100
AcDbEntity
  8
Border
370
    30
390
0
  6
Continuous
 62
    14
100
AcDbLine
 10
-651.631733
 20
7.7893
 30
0.0
 11
-651.631733
 21
-680.680422
 31
0.0
  0
LINE
  5
4D
100
AcDbEntity
  8
Border
370
     0
390
0
  6
Continuous
 62
   174
100
AcDbLine
 10
-654.631733
 20
1.7893
 30
0.0
 11
-654.631733
 21
-674.680422
 31
0.0
  0
LINE
  5
4E
100
AcDbEntity
  8
Border
370
    30
390
0
  6
Continuous
 62
    14
100
AcDbLine
 10
-656.131733
 20
1.7893
 30
0.0
 11
-656.131733
 21
-674.680422
 31
0.0
  0
LINE
  5
4F
100
AcDbEntity
  8
Border
370
     0
390
0
  6
Continuous
 62
   174
100
AcDbLine
 10
78.076601
 20
12.2893
 30
0.0
 11
-645.631733
 21
12.2893
 31
0.0
  0
LINE
  5
50
100
AcDbEntity
  8
0
370
     0
390
0
  6
Continuous
 62
   174
100
AcDbLine
 10
-632.489265
 20
-292.630422
 30
0.0
 11
-614.489265
 21
-292.630422
 31
0.0
  0
LINE
  5
51
100
AcDbEntity
  8
0
370
     0
390
0
  6
Continuous
 62
   174
100
AcDbLine
 10
-632.489265
 20
-286.630422
 30
0.0
 11
-629.489265
 21
-286.630422
 31
0.0
  0
LINE
  5
52
100
AcDbEntity
  8
0
370
     0
390
0
  6
Continuous
 62
   174
100
AcDbLine
 10
-632.489265
 20
-280.630422
 30
0.0
 11
-620.489265
 21
-280.630422
 31
0.0
  0
LINE
  5
53
100
AcDbEntity
  8
0
370
     0
390
0
  6
Continuous
 62
   174
100
AcDbLine
 10
-632.489265
 20
-274.630422
 30
0.0
 11
-629.489265
 21
-274.630422
 31
0.0
  0
LINE
  5
54
100
AcDbEntity
  8
0
370
     0
390
0
  6
Continuous
 62
   174
100
AcDbLine
 10
-632.489265
 20
-268.630422
 30
0.0
 11
-620.489265
 21
-268.630422
 31
0.0
  0
LINE
  5
55
100
AcDbEntity
  8
0
370
     0
390
0
  6
Continuous
 62
   174
100
AcDbLine
 10
-632.489265
 20
-262.630422
 30
0.0
 11
-629.489265
 21
-262.630422
 31
0.0
  0
LINE
  5
56
100
AcDbEntity
  8
0
370
     0
390
0
  6
Continuous
 62
   174
100
AcDbLine
 10
-632.489265
 20
-256.630422
 30
0.0
 11
-620.489265
 21
-256.630422
 31
0.0
  0
LINE
  5
57
100
AcDbEntity
  8
0
370
     0
390
0
  6
Continuous
 62
   174
100
AcDbLine
 10
-632.489265
 20
-250.630422
 30
0.0
 11
-629.489265
 21
-250.630422
 31
0.0
  0
LINE
  5
58
100
AcDbEntity
  8
0
370
     0
390
0
  6
Continuous
 62
   174
100
AcDbLine
 10
-632.489265
 20
-244.630422
 30
0.0
 11
-620.489265
 21
-244.630422
 31
0.0
  0
LINE
  5
59
100
AcDbEntity
  8
0
370
     0
390
0
  6
Continuous
 62
   174
100
AcDbLine
 10
-632.489265
 20
-238.630422
 30
0.0
 11
-629.489265
 21
-238.630422
 31
0.0
  0
LINE
  5
5A
100
AcDbEntity
  8
0
370
     0
390
0
  6
Continuous
 62
   174
100
AcDbLine
 10
-632.489265
 20
-232.630422
 30
0.0
 11
-620.489265
 21
-232.630422
 31
0.0
  0
LINE
  5
5B
100
AcDbEntity
  8
0
370
     0
390
0
  6
Continuous
 62
   174
100
AcDbLine
 10
-632.489265
 20
-226.630422
 30
0.0
 11
-629.489265
 21
-226.630422
 31
0.0
  0
LINE
  5
5C
100
AcDbEntity
  8
0
370
     0
390
0
  6
Continuous
 62
   174
100
AcDbLine
 10
-632.489265
 20
-220.630422
 30
0.0
 11
-620.489265
 21
-220.630422
 31
0.0
  0
LINE
  5
5D
100
AcDbEntity
  8
0
370
     0
390
0
  6
Continuous
 62
   174
100
AcDbLine
 10
-632.489265
 20
-214.630422
 30
0.0
 11
-629.489265
 21
-214.630422
 31
0.0
  0
LINE
  5
5E
100
AcDbEntity
  8
0
370
     0
390
0
  6
Continuous
 62
   174
100
AcDbLine
 10
-632.489265
 20
-208.630422
 30
0.0
 11
-620.489265
 21
-208.630422
 31
0.0
  0
LINE
  5
5F
100
AcDbEntity
  8
0
370
     0
390
0
  6
Continuous
 62
   174
100
AcDbLine
 10
-632.489265
 20
-202.630422
 30
0.0
 11
-629.489265
 21
-202.630422
 31
0.0
  0
LINE
  5
60
100
AcDbEntity
  8
0
370
     0
390
0
  6
Continuous
 62
   174
100
AcDbLine
 10
-632.489265
 20
-196.630422
 30
0.0
 11
-620.489265
 21
-196.630422
 31
0.0
  0
LINE
  5
61
100
AcDbEntity
  8
0
370
     0
390
0
  6
Continuous
 62
   174
100
AcDbLine
 10
-632.489265
 20
-190.630422
 30
0.0
 11
-629.489265
 21
-190.630422
 31
0.0
  0
LINE
  5
62
100
AcDbEntity
  8
0
370
     0
390
0
  6
Continuous
 62
   174
100
AcDbLine
 10
-632.489265
 20
-184.630422
 30
0.0
 11
-620.489265
 21
-184.630422
 31
0.0
  0
LINE
  5
63
100
AcDbEntity
  8
0
370
     0
390
0
  6
Continuous
 62
   174
100
AcDbLine
 10
-632.489265
 20
-178.630422
 30
0.0
 11
-629.489265
 21
-178.630422
 31
0.0
  0
LINE
  5
64
100
AcDbEntity
  8
0
370
     0
390
0
  6
Continuous
 62
   174
100
AcDbLine
 10
-632.489265
 20
-172.630422
 30
0.0
 11
-620.489265
 21
-172.630422
 31
0.0
  0
LINE
  5
65
100
AcDbEntity
  8
0
370
     0
390
0
  6
Continuous
 62
   174
100
AcDbLine
 10
-632.489265
 20
-166.630422
 30
0.0
 11
-629.489265
 21
-166.630422
 31
0.0
  0
LINE
  5
66
100
AcDbEntity
  8
0
370
     0
390
0
  6
Continuous
 62
   174
100
AcDbLine
 10
-632.489265
 20
-160.630422
 30
0.0
 11
-620.489265
 21
-160.630422
 31
0.0
  0
LINE
  5
67
100
AcDbEntity
  8
0
370
     0
390
0
  6
Continuous
 62
   174
100
AcDbLine
 10
-632.489265
 20
-154.630422
 30
0.0
 11
-629.489265
 21
-154.630422
 31
0.0
  0
LINE
  5
68
100
AcDbEntity
  8
0
370
     0
390
0
  6
Continuous
 62
   174
100
AcDbLine
 10
-632.489265
 20
-148.630422
 30
0.0
 11
-620.489265
 21
-148.630422
 31
0.0
  0
LINE
  5
69
100
AcDbEntity
  8
0
370
     0
390
0
  6
Continuous
 62
   174
100
AcDbLine
 10
-632.489265
 20
-142.630422
 30
0.0
 11
-629.489265
 21
-142.630422
 31
0.0
  0
LINE
  5
6A
100
AcDbEntity
  8
0
370
     0
390
0
  6
Continuous
 62
   174
100
AcDbLine
 10
-632.489265
 20
-136.630422
 30
0.0
 11
-620.489265
 21
-136.630422
 31
0.0
  0
LINE
  5
6B
100
AcDbEntity
  8
0
370
     0
390
0
  6
Continuous
 62
   174
100
AcDbLine
 10
-632.489265
 20
-130.630422
 30
0.0
 11
-629.489265
 21
-130.630422
 31
0.0
  0
LINE
  5
6C
100
AcDbEntity
  8
0
370
     0
390
0
  6
Continuous
 62
   174
100
AcDbLine
 10
-632.489265
 20
-124.630422
 30
0.0
 11
-620.489265
 21
-124.630422
 31
0.0
  0
LINE
  5
6D
100
AcDbEntity
  8
0
370
     0
390
0
  6
Continuous
 62
   174
100
AcDbLine
 10
-632.489265
 20
-118.630422
 30
0.0
 11
-629.489265
 21
-118.630422
 31
0.0
  0
LINE
  5
6E
100
AcDbEntity
  8
0
370
     0
390
0
  6
Continuous
 62
   174
100
AcDbLine
 10
-632.489265
 20
-112.630422
 30
0.0
 11
-620.489265
 21
-112.630422
 31
0.0
  0
LINE
  5
6F
100
AcDbEntity
  8
0
370
     0
390
0
  6
Continuous
 62
   174
100
AcDbLine
 10
-632.489265
 20
-106.630422
 30
0.0
 11
-629.489265
 21
-106.630422
 31
0.0
  0
LINE
  5
70
100
AcDbEntity
  8
0
370
     0
390
0
  6
Continuous
 62
   174
100
AcDbLine
 10
-632.489265
 20
-100.630422
 30
0.0
 11
-620.489265
 21
-100.630422
 31
0.0
  0
LINE
  5
71
100
AcDbEntity
  8
0
370
     0
390
0
  6
Continuous
 62
   174
100
AcDbLine
 10
-632.489265
 20
-94.630422
 30
0.0
 11
-629.489265
 21
-94.630422
 31
0.0
  0
LINE
  5
72
100
AcDbEntity
  8
0
370
     0
390
0
  6
Continuous
 62
   174
100
AcDbLine
 10
-632.489265
 20
-88.630422
 30
0.0
 11
-620.489265
 21
-88.630422
 31
0.0
  0
LINE
  5
73
100
AcDbEntity
  8
0
370
     0
390
0
  6
Continuous
 62
   174
100
AcDbLine
 10
-632.489265
 20
-82.630422
 30
0.0
 11
-629.489265
 21
-82.630422
 31
0.0
  0
LINE
  5
74
100
AcDbEntity
  8
0
370
     0
390
0
  6
Continuous
 62
   174
100
AcDbLine
 10
-632.489265
 20
-76.630422
 30
0.0
 11
-620.489265
 21
-76.630422
 31
0.0
  0
LINE
  5
75
100
AcDbEntity
  8
0
370
     0
390
0
  6
Continuous
 62
   174
100
AcDbLine
 10
-632.489265
 20
-70.630422
 30
0.0
 11
-629.489265
 21
-70.630422
 31
0.0
  0
LINE
  5
76
100
AcDbEntity
  8
0
370
     0
390
0
  6
Continuous
 62
   174
100
AcDbLine
 10
-632.489265
 20
-64.630422
 30
0.0
 11
-620.489265
 21
-64.630422
 31
0.0
  0
LINE
  5
77
100
AcDbEntity
  8
0
370
     0
390
0
  6
Continuous
 62
   174
100
AcDbLine
 10
-632.489265
 20
-58.630422
 30
0.0
 11
-629.489265
 21
-58.630422
 31
0.0
  0
LINE
  5
78
100
AcDbEntity
  8
0
370
     0
390
0
  6
Continuous
 62
   174
100
AcDbLine
 10
-632.489265
 20
-52.630422
 30
0.0
 11
-620.489265
 21
-52.630422
 31
0.0
  0
LINE
  5
79
100
AcDbEntity
  8
0
370
     0
390
0
  6
Continuous
 62
   174
100
AcDbLine
 10
-632.489265
 20
-46.630422
 30
0.0
 11
-629.489265
 21
-46.630422
 31
0.0
  0
LINE
  5
7A
100
AcDbEntity
  8
0
370
     0
390
0
  6
Continuous
 62
   174
100
AcDbLine
 10
-632.489265
 20
-40.630422
 30
0.0
 11
-620.489265
 21
-40.630422
 31
0.0
  0
LINE
  5
7B
100
AcDbEntity
  8
0
370
     0
390
0
  6
Continuous
 62
   174
100
AcDbLine
 10
-632.489265
 20
-34.630422
 30
0.0
 11
-629.489265
 21
-34.630422
 31
0.0
  0
LINE
  5
7C
100
AcDbEntity
  8
0
370
     0
390
0
  6
Continuous
 62
   174
100
AcDbLine
 10
-632.489265
 20
-28.630422
 30
0.0
 11
-620.489265
 21
-28.630422
 31
0.0
  0
LINE
  5
7D
100
AcDbEntity
  8
0
370
     0
390
0
  6
Continuous
 62
   174
100
AcDbLine
 10
-632.489265
 20
-292.630422
 30
0.0
 11
-632.489265
 21
-28.630422
 31
0.0
  0
LINE
  5
7E
100
AcDbEntity
  8
0
370
     0
390
0
  6
Continuous
 62
   174
100
AcDbLine
 10
-632.489265
 20
-298.630422
 30
0.0
 11
-629.489265
 21
-298.630422
 31
0.0
  0
LINE
  5
7F
100
AcDbEntity
  8
0
370
     0
390
0
  6
Continuous
 62
   174
100
AcDbLine
 10
-632.489265
 20
-304.630422
 30
0.0
 11
-620.489265
 21
-304.630422
 31
0.0
  0
LINE
  5
80
100
AcDbEntity
  8
0
370
     0
390
0
  6
Continuous
 62
   174
100
AcDbLine
 10
-632.489265
 20
-310.630422
 30
0.0
 11
-629.489265
 21
-310.630422
 31
0.0
  0
LINE
  5
81
100
AcDbEntity
  8
0
370
     0
390
0
  6
Continuous
 62
   174
100
AcDbLine
 10
-632.489265
 20
-316.630422
 30
0.0
 11
-620.489265
 21
-316.630422
 31
0.0
  0
LINE
  5
82
100
AcDbEntity
  8
0
370
     0
390
0
  6
Continuous
 62
   174
100
AcDbLine
 10
-632.489265
 20
-322.630422
 30
0.0
 11
-629.489265
 21
-322.630422
 31
0.0
  0
LINE
  5
83
100
AcDbEntity
  8
0
370
     0
390
0
  6
Continuous
 62
   174
100
AcDbLine
 10
-632.489265
 20
-328.630422
 30
0.0
 11
-620.489265
 21
-328.630422
 31
0.0
  0
LINE
  5
84
100
AcDbEntity
  8
0
370
     0
390
0
  6
Continuous
 62
   174
100
AcDbLine
 10
-632.489265
 20
-334.630422
 30
0.0
 11
-629.489265
 21
-334.630422
 31
0.0
  0
LINE
  5
85
100
AcDbEntity
  8
0
370
     0
390
0
  6
Continuous
 62
   174
100
AcDbLine
 10
-632.489265
 20
-340.630422
 30
0.0
 11
-620.489265
 21
-340.630422
 31
0.0
  0
LINE
  5
86
100
AcDbEntity
  8
0
370
     0
390
0
  6
Continuous
 62
   174
100
AcDbLine
 10
-632.489265
 20
-346.630422
 30
0.0
 11
-629.489265
 21
-346.630422
 31
0.0
  0
LINE
  5
87
100
AcDbEntity
  8
0
370
     0
390
0
  6
Continuous
 62
   174
100
AcDbLine
 10
-632.489265
 20
-352.630422
 30
0.0
 11
-620.489265
 21
-352.630422
 31
0.0
  0
LINE
  5
88
100
AcDbEntity
  8
0
370
     0
390
0
  6
Continuous
 62
   174
100
AcDbLine
 10
-632.489265
 20
-358.630422
 30
0.0
 11
-629.489265
 21
-358.630422
 31
0.0
  0
LINE
  5
89
100
AcDbEntity
  8
0
370
     0
390
0
  6
Continuous
 62
   174
100
AcDbLine
 10
-632.489265
 20
-364.630422
 30
0.0
 11
-620.489265
 21
-364.630422
 31
0.0
  0
LINE
  5
8A
100
AcDbEntity
  8
0
370
     0
390
0
  6
Continuous
 62
   174
100
AcDbLine
 10
-632.489265
 20
-370.630422
 30
0.0
 11
-629.489265
 21
-370.630422
 31
0.0
  0
LINE
  5
8B
100
AcDbEntity
  8
0
370
     0
390
0
  6
Continuous
 62
   174
100
AcDbLine
 10
-632.489265
 20
-376.630422
 30
0.0
 11
-620.489265
 21
-376.630422
 31
0.0
  0
LINE
  5
8C
100
AcDbEntity
  8
0
370
     0
390
0
  6
Continuous
 62
   174
100
AcDbLine
 10
-632.489265
 20
-382.630422
 30
0.0
 11
-629.489265
 21
-382.630422
 31
0.0
  0
LINE
  5
8D
100
AcDbEntity
  8
0
370
     0
390
0
  6
Continuous
 62
   174
100
AcDbLine
 10
-632.489265
 20
-388.630422
 30
0.0
 11
-620.489265
 21
-388.630422
 31
0.0
  0
LINE
  5
8E
100
AcDbEntity
  8
0
370
     0
390
0
  6
Continuous
 62
   174
100
AcDbLine
 10
-632.489265
 20
-394.630422
 30
0.0
 11
-629.489265
 21
-394.630422
 31
0.0
  0
LINE
  5
8F
100
AcDbEntity
  8
0
370
     0
390
0
  6
Continuous
 62
   174
100
AcDbLine
 10
-632.489265
 20
-400.630422
 30
0.0
 11
-620.489265
 21
-400.630422
 31
0.0
  0
LINE
  5
90
100
AcDbEntity
  8
0
370
     0
390
0
  6
Continuous
 62
   174
100
AcDbLine
 10
-632.489265
 20
-406.630422
 30
0.0
 11
-629.489265
 21
-406.630422
 31
0.0
  0
LINE
  5
91
100
AcDbEntity
  8
0
370
     0
390
0
  6
Continuous
 62
   174
100
AcDbLine
 10
-632.489265
 20
-412.630422
 30
0.0
 11
-620.489265
 21
-412.630422
 31
0.0
  0
LINE
  5
92
100
AcDbEntity
  8
0
370
     0
390
0
  6
Continuous
 62
   174
100
AcDbLine
 10
-632.489265
 20
-418.630422
 30
0.0
 11
-629.489265
 21
-418.630422
 31
0.0
  0
LINE
  5
93
100
AcDbEntity
  8
0
370
     0
390
0
  6
Continuous
 62
   174
100
AcDbLine
 10
-632.489265
 20
-424.630422
 30
0.0
 11
-620.489265
 21
-424.630422
 31
0.0
  0
LINE
  5
94
100
AcDbEntity
  8
0
370
     0
390
0
  6
Continuous
 62
   174
100
AcDbLine
 10
-632.489265
 20
-430.630422
 30
0.0
 11
-629.489265
 21
-430.630422
 31
0.0
  0
LINE
  5
95
100
AcDbEntity
  8
0
370
     0
390
0
  6
Continuous
 62
   174
100
AcDbLine
 10
-632.489265
 20
-436.630422
 30
0.0
 11
-620.489265
 21
-436.630422
 31
0.0
  0
LINE
  5
96
100
AcDbEntity
  8
0
370
     0
390
0
  6
Continuous
 62
   174
100
AcDbLine
 10
-632.489265
 20
-442.630422
 30
0.0
 11
-629.489265
 21
-442.630422
 31
0.0
  0
LINE
  5
97
100
AcDbEntity
  8
0
370
     0
390
0
  6
Continuous
 62
   174
100
AcDbLine
 10
-632.489265
 20
-448.630422
 30
0.0
 11
-620.489265
 21
-448.630422
 31
0.0
  0
LINE
  5
98
100
AcDbEntity
  8
0
370
     0
390
0
  6
Continuous
 62
   174
100
AcDbLine
 10
-632.489265
 20
-454.630422
 30
0.0
 11
-629.489265
 21
-454.630422
 31
0.0
  0
LINE
  5
99
100
AcDbEntity
  8
0
370
     0
390
0
  6
Continuous
 62
   174
100
AcDbLine
 10
-632.489265
 20
-460.630422
 30
0.0
 11
-620.489265
 21
-460.630422
 31
0.0
  0
LINE
  5
9A
100
AcDbEntity
  8
0
370
     0
390
0
  6
Continuous
 62
   174
100
AcDbLine
 10
-632.489265
 20
-466.630422
 30
0.0
 11
-629.489265
 21
-466.630422
 31
0.0
  0
LINE
  5
9B
100
AcDbEntity
  8
0
370
     0
390
0
  6
Continuous
 62
   174
100
AcDbLine
 10
-632.489265
 20
-472.630422
 30
0.0
 11
-620.489265
 21
-472.630422
 31
0.0
  0
LINE
  5
9C
100
AcDbEntity
  8
0
370
     0
390
0
  6
Continuous
 62
   174
100
AcDbLine
 10
-632.489265
 20
-478.630422
 30
0.0
 11
-629.489265
 21
-478.630422
 31
0.0
  0
LINE
  5
9D
100
AcDbEntity
  8
0
370
     0
390
0
  6
Continuous
 62
   174
100
AcDbLine
 10
-632.489265
 20
-484.630422
 30
0.0
 11
-620.489265
 21
-484.630422
 31
0.0
  0
LINE
  5
9E
100
AcDbEntity
  8
0
370
     0
390
0
  6
Continuous
 62
   174
100
AcDbLine
 10
-632.489265
 20
-490.630422
 30
0.0
 11
-629.489265
 21
-490.630422
 31
0.0
  0
LINE
  5
9F
100
AcDbEntity
  8
0
370
     0
390
0
  6
Continuous
 62
   174
100
AcDbLine
 10
-632.489265
 20
-496.630422
 30
0.0
 11
-620.489265
 21
-496.630422
 31
0.0
  0
LINE
  5
A0
100
AcDbEntity
  8
0
370
     0
390
0
  6
Continuous
 62
   174
100
AcDbLine
 10
-632.489265
 20
-502.630422
 30
0.0
 11
-629.489265
 21
-502.630422
 31
0.0
  0
LINE
  5
A1
100
AcDbEntity
  8
0
370
     0
390
0
  6
Continuous
 62
   174
100
AcDbLine
 10
-632.489265
 20
-508.630422
 30
0.0
 11
-620.489265
 21
-508.630422
 31
0.0
  0
LINE
  5
A2
100
AcDbEntity
  8
0
370
     0
390
0
  6
Continuous
 62
   174
100
AcDbLine
 10
-632.489265
 20
-514.630422
 30
0.0
 11
-629.489265
 21
-514.630422
 31
0.0
  0
LINE
  5
A3
100
AcDbEntity
  8
0
370
     0
390
0
  6
Continuous
 62
   174
100
AcDbLine
 10
-632.489265
 20
-520.630422
 30
0.0
 11
-620.489265
 21
-520.630422
 31
0.0
  0
LINE
  5
A4
100
AcDbEntity
  8
0
370
     0
390
0
  6
Continuous
 62
   174
100
AcDbLine
 10
-632.489265
 20
-526.630422
 30
0.0
 11
-629.489265
 21
-526.630422
 31
0.0
  0
LINE
  5
A5
100
AcDbEntity
  8
0
370
     0
390
0
  6
Continuous
 62
   174
100
AcDbLine
 10
-632.489265
 20
-532.630422
 30
0.0
 11
-620.489265
 21
-532.630422
 31
0.0
  0
LINE
  5
A6
100
AcDbEntity
  8
0
370
     0
390
0
  6
Continuous
 62
   174
100
AcDbLine
 10
-632.489265
 20
-538.630422
 30
0.0
 11
-629.489265
 21
-538.630422
 31
0.0
  0
LINE
  5
A7
100
AcDbEntity
  8
0
370
     0
390
0
  6
Continuous
 62
   174
100
AcDbLine
 10
-632.489265
 20
-544.630422
 30
0.0
 11
-620.489265
 21
-544.630422
 31
0.0
  0
LINE
  5
A8
100
AcDbEntity
  8
0
370
     0
390
0
  6
Continuous
 62
   174
100
AcDbLine
 10
-632.489265
 20
-550.630422
 30
0.0
 11
-629.489265
 21
-550.630422
 31
0.0
  0
LINE
  5
A9
100
AcDbEntity
  8
0
370
     0
390
0
  6
Continuous
 62
   174
100
AcDbLine
 10
-632.489265
 20
-556.630422
 30
0.0
 11
-620.489265
 21
-556.630422
 31
0.0
  0
LINE
  5
AA
100
AcDbEntity
  8
0
370
     0
390
0
  6
Continuous
 62
   174
100
AcDbLine
 10
-632.489265
 20
-292.630422
 30
0.0
 11
-632.489265
 21
-556.630422
 31
0.0
  0
TEXT
  5
AC
100
AcDbEntity
  8
0
370
     0
390
0
  6
Continuous
 62
   174
100
AcDbText
 10
-615.181202
 20
-282.130422
 30
0.0
 40
3.0
  1
1'
 41
-1.0
  7
Vcadd_HandPrnt
 72
     2
 11
-617.489265
 21
-282.130422
 31
0.0
100
AcDbText
  0
TEXT
  5
AD
100
AcDbEntity
  8
0
370
     0
390
0
  6
Continuous
 62
   174
100
AcDbText
 10
-614.083369
 20
-270.130422
 30
0.0
 40
3.0
  1
2'
 41
-1.0
  7
Vcadd_HandPrnt
 72
     2
 11
-617.489265
 21
-270.130422
 31
0.0
100
AcDbText
  0
TEXT
  5
AE
100
AcDbEntity
  8
0
370
     0
390
0
  6
Continuous
 62
   174
100
AcDbText
 10
-614.095813
 20
-258.130422
 30
0.0
 40
3.0
  1
3'
 41
-1.0
  7
Vcadd_HandPrnt
 72
     2
 11
-617.489265
 21
-258.130422
 31
0.0
100
AcDbText
  0
TEXT
  5
AF
100
AcDbEntity
  8
0
370
     0
390
0
  6
Continuous
 62
   174
100
AcDbText
 10
-613.998298
 20
-246.130422
 30
0.0
 40
3.0
  1
4'
 41
-1.0
  7
Vcadd_HandPrnt
 72
     2
 11
-617.489265
 21
-246.130422
 31
0.0
100
AcDbText
  0
TEXT
  5
B0
100
AcDbEntity
  8
0
370
     0
390
0
  6
Continuous
 62
   174
100
AcDbText
 10
-614.069958
 20
-234.130422
 30
0.0
 40
3.0
  1
5'
 41
-1.0
  7
Vcadd_HandPrnt
 72
     2
 11
-617.489265
 21
-234.130422
 31
0.0
100
AcDbText
  0
TEXT
  5
B1
100
AcDbEntity
  8
0
370
     0
390
0
  6
Continuous
 62
   174
100
AcDbText
 10
-614.106723
 20
-222.130422
 30
0.0
 40
3.0
  1
6'
 41
-1.0
  7
Vcadd_HandPrnt
 72
     2
 11
-617.489265
 21
-222.130422
 31
0.0
100
AcDbText
  0
TEXT
  5
B2
100
AcDbEntity
  8
0
370
     0
390
0
  6
Continuous
 62
   174
100
AcDbText
 10
-614.088331
 20
-210.130422
 30
0.0
 40
3.0
  1
7'
 41
-1.0
  7
Vcadd_HandPrnt
 72
     2
 11
-617.489265
 21
-210.130422
 31
0.0
100
AcDbText
  0
TEXT
  5
B3
100
AcDbEntity
  8
0
370
     0
390
0
  6
Continuous
 62
   174
100
AcDbText
 10
-614.07925
 20
-198.130422
 30
0.0
 40
3.0
  1
8'
 41
-1.0
  7
Vcadd_HandPrnt
 72
     2
 11
-617.489265
 21
-198.130422
 31
0.0
100
AcDbText
  0
TEXT
  5
B4
100
AcDbEntity
  8
0
370
     0
390
0
  6
Continuous
 62
   174
100
AcDbText
 10
-614.119772
 20
-186.130422
 30
0.0
 40
3.0
  1
9'
 41
-1.0
  7
Vcadd_HandPrnt
 72
     2
 11
-617.489265
 21
-186.130422
 31
0.0
100
AcDbText
  0
TEXT
  5
B5
100
AcDbEntity
  8
0
370
     0
390
0
  6
Continuous
 62
   174
100
AcDbText
 10
-612.281849
 20
-174.130422
 30
0.0
 40
3.0
  1
10'
 41
-1.0
  7
Vcadd_HandPrnt
 72
     2
 11
-617.489265
 21
-174.130422
 31
0.0
100
AcDbText
  0
TEXT
  5
B6
100
AcDbEntity
  8
0
370
     0
390
0
  6
Continuous
 62
   174
100
AcDbText
 10
-613.319393
 20
-162.130422
 30
0.0
 40
3.0
  1
11'
 41
-1.0
  7
Vcadd_HandPrnt
 72
     2
 11
-617.489265
 21
-162.130422
 31
0.0
100
AcDbText
  0
TEXT
  5
B7
100
AcDbEntity
  8
0
370
     0
390
0
  6
Continuous
 62
   174
100
AcDbText
 10
-612.22156
 20
-150.130422
 30
0.0
 40
3.0
  1
12'
 41
-1.0
  7
Vcadd_HandPrnt
 72
     2
 11
-617.489265
 21
-150.130422
 31
0.0
100
AcDbText
  0
TEXT
  5
B8
100
AcDbEntity
  8
0
370
     0
390
0
  6
Continuous
 62
   174
100
AcDbText
 10
-612.234003
 20
-138.130422
 30
0.0
 40
3.0
  1
13'
 41
-1.0
  7
Vcadd_HandPrnt
 72
     2
 11
-617.489265
 21
-138.130422
 31
0.0
100
AcDbText
  0
TEXT
  5
B9
100
AcDbEntity
  8
0
370
     0
390
0
  6
Continuous
 62
   174
100
AcDbText
 10
-612.136489
 20
-126.130422
 30
0.0
 40
3.0
  1
14'
 41
-1.0
  7
Vcadd_HandPrnt
 72
     2
 11
-617.489265
 21
-126.130422
 31
0.0
100
AcDbText
  0
TEXT
  5
BA
100
AcDbEntity
  8
0
370
     0
390
0
  6
Continuous
 62
   174
100
AcDbText
 10
-612.208149
 20
-114.130422
 30
0.0
 40
3.0
  1
15'
 41
-1.0
  7
Vcadd_HandPrnt
 72
     2
 11
-617.489265
 21
-114.130422
 31
0.0
100
AcDbText
  0
TEXT
  5
BB
100
AcDbEntity
  8
0
370
     0
390
0
  6
Continuous
 62
   174
100
AcDbText
 10
-612.244913
 20
-102.130422
 30
0.0
 40
3.0
  1
16'
 41
-1.0
  7
Vcadd_HandPrnt
 72
     2
 11
-617.489265
 21
-102.130422
 31
0.0
100
AcDbText
  0
TEXT
  5
BC
100
AcDbEntity
  8
0
370
     0
390
0
  6
Continuous
 62
   174
100
AcDbText
 10
-612.226521
 20
-90.130422
 30
0.0
 40
3.0
  1
17'
 41
-1.0
  7
Vcadd_HandPrnt
 72
     2
 11
-617.489265
 21
-90.130422
 31
0.0
100
AcDbText
  0
TEXT
  5
BD
100
AcDbEntity
  8
0
370
     0
390
0
  6
Continuous
 62
   174
100
AcDbText
 10
-612.21744
 20
-78.130422
 30
0.0
 40
3.0
  1
18'
 41
-1.0
  7
Vcadd_HandPrnt
 72
     2
 11
-617.489265
 21
-78.130422
 31
0.0
100
AcDbText
  0
TEXT
  5
BE
100
AcDbEntity
  8
0
370
     0
390
0
  6
Continuous
 62
   174
100
AcDbText
 10
-612.257962
 20
-66.130422
 30
0.0
 40
3.0
  1
19'
 41
-1.0
  7
Vcadd_HandPrnt
 72
     2
 11
-617.489265
 21
-66.130422
 31
0.0
100
AcDbText
  0
TEXT
  5
BF
100
AcDbEntity
  8
0
370
     0
390
0
  6
Continuous
 62
   174
100
AcDbText
 10
-611.184016
 20
-54.130422
 30
0.0
 40
3.0
  1
20'
 41
-1.0
  7
Vcadd_HandPrnt
 72
     2
 11
-617.489265
 21
-54.130422
 31
0.0
100
AcDbText
  0
TEXT
  5
C0
100
AcDbEntity
  8
0
370
     0
390
0
  6
Continuous
 62
   174
100
AcDbText
 10
-612.22156
 20
-42.130422
 30
0.0
 40
3.0
  1
21'
 41
-1.0
  7
Vcadd_HandPrnt
 72
     2
 11
-617.489265
 21
-42.130422
 31
0.0
100
AcDbText
  0
TEXT
  5
C1
100
AcDbEntity
  8
0
370
     0
390
0
  6
Continuous
 62
   174
100
AcDbText
 10
-611.123726
 20
-30.130422
 30
0.0
 40
3.0
  1
22'
 41
-1.0
  7
Vcadd_HandPrnt
 72
     2
 11
-617.489265
 21
-30.130422
 31
0.0
100
AcDbText
  0
TEXT
  5
C2
100
AcDbEntity
  8
0
370
     0
390
0
  6
Continuous
 62
   174
100
AcDbText
 10
-617.489265
 20
-306.130422
 30
0.0
 40
3.0
  1
1'
  7
Vcadd_HandPrnt
100
AcDbText
  0
TEXT
  5
C3
100
AcDbEntity
  8
0
370
     0
390
0
  6
Continuous
 62
   174
100
AcDbText
 10
-617.489265
 20
-318.130422
 30
0.0
 40
3.0
  1
2'
  7
Vcadd_HandPrnt
100
AcDbText
  0
TEXT
  5
C4
100
AcDbEntity
  8
0
370
     0
390
0
  6
Continuous
 62
   174
100
AcDbText
 10
-617.489265
 20
-330.130422
 30
0.0
 40
3.0
  1
3'
  7
Vcadd_HandPrnt
100
AcDbText
  0
TEXT
  5
C5
100
AcDbEntity
  8
0
370
     0
390
0
  6
Continuous
 62
   174
100
AcDbText
 10
-617.489265
 20
-342.130422
 30
0.0
 40
3.0
  1
4'
  7
Vcadd_HandPrnt
100
AcDbText
  0
TEXT
  5
C6
100
AcDbEntity
  8
0
370
     0
390
0
  6
Continuous
 62
   174
100
AcDbText
 10
-617.489265
 20
-354.130422
 30
0.0
 40
3.0
  1
5'
  7
Vcadd_HandPrnt
100
AcDbText
  0
TEXT
  5
C7
100
AcDbEntity
  8
0
370
     0
390
0
  6
Continuous
 62
   174
100
AcDbText
 10
-617.489265
 20
-366.130422
 30
0.0
 40
3.0
  1
6'
  7
Vcadd_HandPrnt
100
AcDbText
  0
TEXT
  5
C8
100
AcDbEntity
  8
0
370
     0
390
0
  6
Continuous
 62
   174
100
AcDbText
 10
-617.489265
 20
-378.130422
 30
0.0
 40
3.0
  1
7'
  7
Vcadd_HandPrnt
100
AcDbText
  0
TEXT
  5
C9
100
AcDbEntity
  8
0
370
     0
390
0
  6
Continuous
 62
   174
100
AcDbText
 10
-617.489265
 20
-390.130422
 30
0.0
 40
3.0
  1
8'
  7
Vcadd_HandPrnt
100
AcDbText
  0
TEXT
  5
CA
100
AcDbEntity
  8
0
370
     0
390
0
  6
Continuous
 62
   174
100
AcDbText
 10
-617.489265
 20
-402.130422
 30
0.0
 40
3.0
  1
9'
  7
Vcadd_HandPrnt
100
AcDbText
  0
TEXT
  5
CB
100
AcDbEntity
  8
0
370
     0
390
0
  6
Continuous
 62
   174
100
AcDbText
 10
-617.489265
 20
-414.130422
 30
0.0
 40
3.0
  1
10'
  7
Vcadd_HandPrnt
100
AcDbText
  0
TEXT
  5
CC
100
AcDbEntity
  8
0
370
     0
390
0
  6
Continuous
 62
   174
100
AcDbText
 10
-617.489265
 20
-426.130422
 30
0.0
 40
3.0
  1
11'
  7
Vcadd_HandPrnt
100
AcDbText
  0
TEXT
  5
CD
100
AcDbEntity
  8
0
370
     0
390
0
  6
Continuous
 62
   174
100
AcDbText
 10
-617.489265
 20
-438.130422
 30
0.0
 40
3.0
  1
12'
  7
Vcadd_HandPrnt
100
AcDbText
  0
TEXT
  5
CE
100
AcDbEntity
  8
0
370
     0
390
0
  6
Continuous
 62
   174
100
AcDbText
 10
-617.489265
 20
-450.130422
 30
0.0
 40
3.0
  1
13'
  7
Vcadd_HandPrnt
100
AcDbText
  0
TEXT
  5
CF
100
AcDbEntity
  8
0
370
     0
390
0
  6
Continuous
 62
   174
100
AcDbText
 10
-617.489265
 20
-462.130422
 30
0.0
 40
3.0
  1
14'
  7
Vcadd_HandPrnt
100
AcDbText
  0
TEXT
  5
D0
100
AcDbEntity
  8
0
370
     0
390
0
  6
Continuous
 62
   174
100
AcDbText
 10
-617.489265
 20
-474.130422
 30
0.0
 40
3.0
  1
15'
  7
Vcadd_HandPrnt
100
AcDbText
  0
TEXT
  5
D1
100
AcDbEntity
  8
0
370
     0
390
0
  6
Continuous
 62
   174
100
AcDbText
 10
-617.489265
 20
-486.130422
 30
0.0
 40
3.0
  1
16'
  7
Vcadd_HandPrnt
100
AcDbText
  0
TEXT
  5
D2
100
AcDbEntity
  8
0
370
     0
390
0
  6
Continuous
 62
   174
100
AcDbText
 10
-617.489265
 20
-498.130422
 30
0.0
 40
3.0
  1
17'
  7
Vcadd_HandPrnt
100
AcDbText
  0
TEXT
  5
D3
100
AcDbEntity
  8
0
370
     0
390
0
  6
Continuous
 62
   174
100
AcDbText
 10
-617.489265
 20
-510.130422
 30
0.0
 40
3.0
  1
18'
  7
Vcadd_HandPrnt
100
AcDbText
  0
TEXT
  5
D4
100
AcDbEntity
  8
0
370
     0
390
0
  6
Continuous
 62
   174
100
AcDbText
 10
-617.489265
 20
-522.130422
 30
0.0
 40
3.0
  1
19'
  7
Vcadd_HandPrnt
100
AcDbText
  0
TEXT
  5
D5
100
AcDbEntity
  8
0
370
     0
390
0
  6
Continuous
 62
   174
100
AcDbText
 10
-617.489265
 20
-534.130422
 30
0.0
 40
3.0
  1
20'
  7
Vcadd_HandPrnt
100
AcDbText
  0
TEXT
  5
D6
100
AcDbEntity
  8
0
370
     0
390
0
  6
Continuous
 62
   174
100
AcDbText
 10
-617.489265
 20
-546.130422
 30
0.0
 40
3.0
  1
21'
  7
Vcadd_HandPrnt
100
AcDbText
  0
TEXT
  5
D7
100
AcDbEntity
  8
0
370
     0
390
0
  6
Continuous
 62
   174
100
AcDbText
 10
-617.489265
 20
-558.130422
 30
0.0
 40
3.0
  1
22'
  7
Vcadd_HandPrnt
100
AcDbText
  0
CIRCLE
  5
D8
100
AcDbEntity
  8
0
370
     0
390
0
  6
Continuous
 62
     7
100
AcDbCircle
 10
-122.343983
 20
-132.630483
 30
0.0
 40
0.625
  0
CIRCLE
  5
D9
100
AcDbEntity
  8
0
370
     0
390
0
  6
Continuous
 62
     7
100
AcDbCircle
 10
-518.576395
 20
-132.630483
 30
0.0
 40
0.625
  0
CIRCLE
  5
DA
100
AcDbEntity
  8
0
370
     0
390
0
  6
Continuous
 62
     1
100
AcDbCircle
 10
-296.460191
 20
-31.130422
 30
0.0
 40
0.5
  0
CIRCLE
  5
DB
100
AcDbEntity
  8
0
370
     0
390
0
  6
Continuous
 62
     1
100
AcDbCircle
 10
-278.460191
 20
-31.130422
 30
0.0
 40
0.5
  0
LINE
  5
DC
100
AcDbEntity
  8
0
370
     0
390
0
  6
Continuous
 62
     1
100
AcDbLine
 10
-278.893204
 20
-30.880422
 30
0.0
 11
-296.027179
 21
-30.880422
 31
0.0
  0
LINE
  5
DD
100
AcDbEntity
  8
0
370
     0
390
0
  6
Continuous
 62
     1
100
AcDbLine
 10
-278.893204
 20
-31.380422
 30
0.0
 11
-296.027179
 21
-31.380422
 31
0.0
  0
POLYLINE
  5
DF
100
AcDbEntity
  8
hidden positions
370
     0
390
0
  6
DOT
 62
     7
100
AcDb2dPolyline
 66
     1
 10
0.0
 20
0.0
 30
0.0
 70
   128
  0
VERTEX
  5
E0
100
AcDbEntity
  8
hidden positions
370
     0
390
0
  6
DOT
 62
     7
100
AcDbVertex
100
AcDb2dVertex
 10
-518.885759
 20
-34.51813
 30
0.0
  0
VERTEX
  5
E1
100
AcDbEntity
  8
hidden positions
370
     0
390
0
  6
DOT
 62
     7
100
AcDbVertex
100
AcDb2dVertex
 10
-320.460189
 20
-34.51813
 30
0.0
  0
VERTEX
  5
E2
100
AcDbEntity
  8
hidden positions
370
     0
390
0
  6
DOT
 62
     7
100
AcDbVertex
100
AcDb2dVertex
 10
-122.034619
 20
-34.51813
 30
0.0
  0
SEQEND
  5
E3
100
AcDbEntity
  8
hidden positions
370
     0
390
0
  6
DOT
 62
     7
  0
POLYLINE
  5
E4
100
AcDbEntity
  8
hidden positions
370
     0
390
0
  6
DOT
 62
     7
100
AcDb2dPolyline
 66
     1
 10
0.0
 20
0.0
 30
0.0
 70
   128
  0
VERTEX
  5
E5
100
AcDbEntity
  8
hidden positions
370
     0
390
0
  6
DOT
 62
     7
100
AcDbVertex
100
AcDb2dVertex
 10
-518.885759
 20
-33.51813
 30
0.0
  0
VERTEX
  5
E6
100
AcDbEntity
  8
hidden positions
370
     0
390
0
  6
DOT
 62
     7
100
AcDbVertex
100
AcDb2dVertex
 10
-320.460189
 20
-33.51813
 30
0.0
  0
VERTEX
  5
E7
100
AcDbEntity
  8
hidden positions
370
     0
390
0
  6
DOT
 62
     7
100
AcDbVertex
100
AcDb2dVertex
 10
-122.034619
 20
-33.51813
 30
0.0
  0
SEQEND
  5
E8
100
AcDbEntity
  8
hidden positions
370
     0
390
0
  6
DOT
 62
     7
  0
POLYLINE
  5
E9
100
AcDbEntity
  8
hidden positions
370
     0
390
0
  6
DOT
 62
     7
100
AcDb2dPolyline
 66
     1
 10
0.0
 20
0.0
 30
0.0
 70
   128
  0
VERTEX
  5
EA
100
AcDbEntity
  8
hidden positions
370
     0
390
0
  6
DOT
 62
     7
100
AcDbVertex
100
AcDb2dVertex
 10
-518.885759
 20
-35.51813
 30
0.0
  0
VERTEX
  5
EB
100
AcDbEntity
  8
hidden positions
370
     0
390
0
  6
DOT
 62
     7
100
AcDbVertex
100
AcDb2dVertex
 10
-320.460189
 20
-35.51813
 30
0.0
  0
VERTEX
  5
EC
100
AcDbEntity
  8
hidden positions
370
     0
390
0
  6
DOT
 62
     7
100
AcDbVertex
100
AcDb2dVertex
 10
-122.034619
 20
-35.51813
 30
0.0
  0
SEQEND
  5
ED
100
AcDbEntity
  8
hidden positions
370
     0
390
0
  6
DOT
 62
     7
  0
LINE
  5
EE
100
AcDbEntity
  8
hidden positions
370
     0
390
0
  6
DOT
 62
     7
100
AcDbLine
 10
-120.960189
 20
-560.630422
 30
0.0
 11
-120.960189
 21
-33.51813
 31
0.0
  0
LINE
  5
EF
100
AcDbEntity
  8
hidden positions
370
     0
390
0
  6
DOT
 62
     7
100
AcDbLine
 10
-518.960189
 20
-560.630422
 30
0.0
 11
-518.960189
 21
-33.51813
 31
0.0
  0
LINE
  5
F0
100
AcDbEntity
  8
hidden positions
370
     0
390
0
  6
DOT
 62
     7
100
AcDbLine
 10
-519.960189
 20
-560.630422
 30
0.0
 11
-519.960189
 21
-33.51813
 31
0.0
  0
LINE
  5
F1
100
AcDbEntity
  8
hidden positions
370
     0
390
0
  6
DOT
 62
     7
100
AcDbLine
 10
-221.247404
 20
-560.630422
 30
0.0
 11
-221.247404
 21
-33.51813
 31
0.0
  0
LINE
  5
F2
100
AcDbEntity
  8
hidden positions
370
     0
390
0
  6
DOT
 62
     7
100
AcDbLine
 10
-220.247404
 20
-560.630422
 30
0.0
 11
-220.247404
 21
-33.51813
 31
0.0
  0
LINE
  5
F3
100
AcDbEntity
  8
hidden positions
370
     0
390
0
  6
DOT
 62
     7
100
AcDbLine
 10
-419.672974
 20
-560.630422
 30
0.0
 11
-419.672974
 21
-33.51813
 31
0.0
  0
LINE
  5
F4
100
AcDbEntity
  8
hidden positions
370
     0
390
0
  6
DOT
 62
     7
100
AcDbLine
 10
-420.672974
 20
-560.630422
 30
0.0
 11
-420.672974
 21
-33.51813
 31
0.0
  0
LINE
  5
F5
100
AcDbEntity
  8
hidden positions
370
     0
390
0
  6
DOT
 62
     7
100
AcDbLine
 10
-418.672974
 20
-560.630422
 30
0.0
 11
-418.672974
 21
-33.51813
 31
0.0
  0
INSERT
  5
111
100
AcDbEntity
  8
0
370
     0
390
0
  6
DOT
 62
     7
100
AcDbBlockReference
  2
hanging position
 10
-121.960189
 20
-588.864561
 30
0.0
  0
INSERT
  5
112
100
AcDbEntity
  8
0
370
     0
390
0
  6
DOT
 62
     7
100
AcDbBlockReference
  2
hanging position
 10
-221.247404
 20
-588.864561
 30
0.0
  0
INSERT
  5
113
100
AcDbEntity
  8
0
370
     0
390
0
  6
DOT
 62
     7
100
AcDbBlockReference
  2
hanging position
 10
-419.821834
 20
-588.864561
 30
0.0
  0
INSERT
  5
114
100
AcDbEntity
  8
0
370
     0
390
0
  6
DOT
 62
     7
100
AcDbBlockReference
  2
hanging position
 10
-519.109049
 20
-588.864561
 30
0.0
  0
TEXT
  5
115
100
AcDbEntity
  8
0
370
     0
390
0
  6
Continuous
 62
   174
100
AcDbText
 10
-222.962821
 20
-587.416142
 30
0.0
 40
2.5
  1
#1
  7
Vcadd_HandPrnt
 72
     1
 11
-221.247404
 21
-587.416142
 31
0.0
100
AcDbText
  0
TEXT
  5
116
100
AcDbEntity
  8
0
370
     0
390
0
  6
Continuous
 62
   174
100
AcDbText
 10
-223.052904
 20
-590.416142
 30
0.0
 40
2.5
  1
SL
  7
Vcadd_HandPrnt
 72
     1
 11
-221.247404
 21
-590.416142
 31
0.0
100
AcDbText
  0
TEXT
  5
117
100
AcDbEntity
  8
0
370
     0
390
0
  6
Continuous
 62
   174
100
AcDbText
 10
-224.494238
 20
-593.416142
 30
0.0
 40
2.5
  1
Tab
  7
Vcadd_HandPrnt
 72
     1
 11
-221.247404
 21
-593.416142
 31
0.0
100
AcDbText
  0
TEXT
  5
118
100
AcDbEntity
  8
0
370
     0
390
0
  6
Continuous
 62
   174
100
AcDbText
 10
-421.537251
 20
-587.416142
 30
0.0
 40
2.5
  1
#1
  7
Vcadd_HandPrnt
 72
     1
 11
-419.821834
 21
-587.416142
 31
0.0
100
AcDbText
  0
TEXT
  5
119
100
AcDbEntity
  8
0
370
     0
390
0
  6
Continuous
 62
   174
100
AcDbText
 10
-421.905251
 20
-590.416142
 30
0.0
 40
2.5
  1
SR
  7
Vcadd_HandPrnt
 72
     1
 11
-419.821834
 21
-590.416142
 31
0.0
100
AcDbText
  0
TEXT
  5
11A
100
AcDbEntity
  8
0
370
     0
390
0
  6
Continuous
 62
   174
100
AcDbText
 10
-423.068668
 20
-593.416142
 30
0.0
 40
2.5
  1
Tab
  7
Vcadd_HandPrnt
 72
     1
 11
-419.821834
 21
-593.416142
 31
0.0
100
AcDbText
  0
POLYLINE
  5
11C
100
AcDbEntity
  8
0
370
     0
390
0
  6
DASHED
 62
   174
100
AcDb2dPolyline
 66
     1
 10
0.0
 20
0.0
 30
0.0
 70
   128
  0
VERTEX
  5
11D
100
AcDbEntity
  8
0
370
     0
390
0
  6
DASHED
 62
   174
100
AcDbVertex
100
AcDb2dVertex
 10
-278.460191
 20
-31.130422
 30
0.0
  0
VERTEX
  5
11E
100
AcDbEntity
  8
0
370
     0
390
0
  6
DASHED
 62
   174
100
AcDbVertex
100
AcDb2dVertex
 10
-278.460191
 20
-49.380422
 30
0.0
  0
VERTEX
  5
11F
100
AcDbEntity
  8
0
370
     0
390
0
  6
DASHED
 62
   174
100
AcDbVertex
100
AcDb2dVertex
 10
-296.460191
 20
-49.380422
 30
0.0
  0
VERTEX
  5
120
100
AcDbEntity
  8
0
370
     0
390
0
  6
DASHED
 62
   174
100
AcDbVertex
100
AcDb2dVertex
 10
-296.460191
 20
-31.130422
 30
0.0
  0
SEQEND
  5
121
100
AcDbEntity
  8
0
370
     0
390
0
  6
DASHED
 62
   174
  0
TEXT
  5
122
100
AcDbEntity
  8
0
370
     0
390
0
  6
Continuous
 62
   174
100
AcDbText
 10
-561.11026
 20
-43.885151
 30
0.0
 40
3.0
  1
Air Duct
  7
Vcadd_HandPrnt
100
AcDbText
  0
POLYLINE
  5
123
100
AcDbEntity
  8
hidden positions
370
     0
390
0
  6
DOT
 62
     7
100
AcDb2dPolyline
 66
     1
 10
0.0
 20
0.0
 30
0.0
 70
   128
  0
VERTEX
  5
124
100
AcDbEntity
  8
hidden positions
370
     0
390
0
  6
DOT
 62
     7
100
AcDbVertex
100
AcDb2dVertex
 10
-566.960189
 20
-78.630422
 30
0.0
  0
VERTEX
  5
125
100
AcDbEntity
  8
hidden positions
370
     0
390
0
  6
DOT
 62
     7
100
AcDbVertex
100
AcDb2dVertex
 10
-320.460189
 20
-78.630422
 30
0.0
  0
VERTEX
  5
126
100
AcDbEntity
  8
hidden positions
370
     0
390
0
  6
DOT
 62
     7
100
AcDbVertex
100
AcDb2dVertex
 10
-73.960189
 20
-78.630422
 30
0.0
  0
SEQEND
  5
127
100
AcDbEntity
  8
hidden positions
370
     0
390
0
  6
DOT
 62
     7
  0
POLYLINE
  5
128
100
AcDbEntity
  8
hidden positions
370
     0
390
0
  6
DOT
 62
     7
100
AcDb2dPolyline
 66
     1
 10
0.0
 20
0.0
 30
0.0
 70
   128
  0
VERTEX
  5
129
100
AcDbEntity
  8
hidden positions
370
     0
390
0
  6
DOT
 62
     7
100
AcDbVertex
100
AcDb2dVertex
 10
-566.960189
 20
-79.630422
 30
0.0
  0
VERTEX
  5
12A
100
AcDbEntity
  8
hidden positions
370
     0
390
0
  6
DOT
 62
     7
100
AcDbVertex
100
AcDb2dVertex
 10
-320.460189
 20
-79.630422
 30
0.0
  0
VERTEX
  5
12B
100
AcDbEntity
  8
hidden positions
370
     0
390
0
  6
DOT
 62
     7
100
AcDbVertex
100
AcDb2dVertex
 10
-73.794652
 20
-79.630422
 30
0.0
  0
SEQEND
  5
12C
100
AcDbEntity
  8
hidden positions
370
     0
390
0
  6
DOT
 62
     7
  0
POLYLINE
  5
12D
100
AcDbEntity
  8
hidden positions
370
     0
390
0
  6
DOT
 62
     7
100
AcDb2dPolyline
 66
     1
 10
0.0
 20
0.0
 30
0.0
 70
   128
  0
VERTEX
  5
12E
100
AcDbEntity
  8
hidden positions
370
     0
390
0
  6
DOT
 62
     7
100
AcDbVertex
100
AcDb2dVertex
 10
-566.960189
 20
-80.630422
 30
0.0
  0
VERTEX
  5
12F
100
AcDbEntity
  8
hidden positions
370
     0
390
0
  6
DOT
 62
     7
100
AcDbVertex
100
AcDb2dVertex
 10
-320.460189
 20
-80.630422
 30
0.0
  0
VERTEX
  5
130
100
AcDbEntity
  8
hidden positions
370
     0
390
0
  6
DOT
 62
     7
100
AcDbVertex
100
AcDb2dVertex
 10
-73.960189
 20
-80.630422
 30
0.0
  0
SEQEND
  5
131
100
AcDbEntity
  8
hidden positions
370
     0
390
0
  6
DOT
 62
     7
  0
POLYLINE
  5
132
100
AcDbEntity
  8
hidden positions
370
     0
390
0
  6
DOT
 62
     7
100
AcDb2dPolyline
 66
     1
 10
0.0
 20
0.0
 30
0.0
 70
   128
  0
VERTEX
  5
133
100
AcDbEntity
  8
hidden positions
370
     0
390
0
  6
DOT
 62
     7
100
AcDbVertex
100
AcDb2dVertex
 10
-566.960189
 20
-126.630422
 30
0.0
  0
VERTEX
  5
134
100
AcDbEntity
  8
hidden positions
370
     0
390
0
  6
DOT
 62
     7
100
AcDbVertex
100
AcDb2dVertex
 10
-320.460189
 20
-126.630422
 30
0.0
  0
VERTEX
  5
135
100
AcDbEntity
  8
hidden positions
370
     0
390
0
  6
DOT
 62
     7
100
AcDbVertex
100
AcDb2dVertex
 10
-73.960189
 20
-126.630422
 30
0.0
  0
SEQEND
  5
136
100
AcDbEntity
  8
hidden positions
370
     0
390
0
  6
DOT
 62
     7
  0
POLYLINE
  5
137
100
AcDbEntity
  8
hidden positions
370
     0
390
0
  6
DOT
 62
     7
100
AcDb2dPolyline
 66
     1
 10
0.0
 20
0.0
 30
0.0
 70
   128
  0
VERTEX
  5
138
100
AcDbEntity
  8
hidden positions
370
     0
390
0
  6
DOT
 62
     7
100
AcDbVertex
100
AcDb2dVertex
 10
-566.960189
 20
-127.630422
 30
0.0
  0
VERTEX
  5
139
100
AcDbEntity
  8
hidden positions
370
     0
390
0
  6
DOT
 62
     7
100
AcDbVertex
100
AcDb2dVertex
 10
-320.460189
 20
-127.630422
 30
0.0
  0
VERTEX
  5
13A
100
AcDbEntity
  8
hidden positions
370
     0
390
0
  6
DOT
 62
     7
100
AcDbVertex
100
AcDb2dVertex
 10
-73.794652
 20
-127.630422
 30
0.0
  0
SEQEND
  5
13B
100
AcDbEntity
  8
hidden positions
370
     0
390
0
  6
DOT
 62
     7
  0
POLYLINE
  5
13C
100
AcDbEntity
  8
hidden positions
370
     0
390
0
  6
DOT
 62
     7
100
AcDb2dPolyline
 66
     1
 10
0.0
 20
0.0
 30
0.0
 70
   128
  0
VERTEX
  5
13D
100
AcDbEntity
  8
hidden positions
370
     0
390
0
  6
DOT
 62
     7
100
AcDbVertex
100
AcDb2dVertex
 10
-566.960189
 20
-128.630422
 30
0.0
  0
VERTEX
  5
13E
100
AcDbEntity
  8
hidden positions
370
     0
390
0
  6
DOT
 62
     7
100
AcDbVertex
100
AcDb2dVertex
 10
-320.460189
 20
-128.630422
 30
0.0
  0
VERTEX
  5
13F
100
AcDbEntity
  8
hidden positions
370
     0
390
0
  6
DOT
 62
     7
100
AcDbVertex
100
AcDb2dVertex
 10
-73.960189
 20
-128.630422
 30
0.0
  0
SEQEND
  5
140
100
AcDbEntity
  8
hidden positions
370
     0
390
0
  6
DOT
 62
     7
  0
INSERT
  5
141
100
AcDbEntity
  8
0
370
     0
390
0
  6
DOT
 62
     7
100
AcDbBlockReference
  2
hanging position
 10
-43.078849
 20
-34.546853
 30
0.0
  0
TEXT
  5
142
100
AcDbEntity
  8
0
370
     0
390
0
  6
Continuous
 62
   174
100
AcDbText
 10
-45.417182
 20
-33.098433
 30
0.0
 40
2.5
  1
#4
  7
Vcadd_HandPrnt
 72
     1
 11
-43.078849
 21
-33.098433
 31
0.0
100
AcDbText
  0
TEXT
  5
143
100
AcDbEntity
  8
0
370
     0
390
0
  6
Continuous
 62
   174
100
AcDbText
 10
-49.562932
 20
-36.098433
 30
0.0
 40
2.5
  1
Electric
  7
Vcadd_HandPrnt
 72
     1
 11
-43.078849
 21
-36.098433
 31
0.0
100
AcDbText
  0
INSERT
  5
144
100
AcDbEntity
  8
0
370
     0
390
0
  6
DOT
 62
     7
100
AcDbBlockReference
  2
hanging position
 10
-43.078849
 20
-127.659144
 30
0.0
  0
TEXT
  5
145
100
AcDbEntity
  8
0
370
     0
390
0
  6
Continuous
 62
   174
100
AcDbText
 10
-45.300266
 20
-126.210724
 30
0.0
 40
2.5
  1
#2
  7
Vcadd_HandPrnt
 72
     1
 11
-43.078849
 21
-126.210724
 31
0.0
100
AcDbText
  0
TEXT
  5
146
100
AcDbEntity
  8
0
370
     0
390
0
  6
Continuous
 62
   174
100
AcDbText
 10
-49.562932
 20
-129.210724
 30
0.0
 40
2.5
  1
Electric
  7
Vcadd_HandPrnt
 72
     1
 11
-43.078849
 21
-129.210724
 31
0.0
100
AcDbText
  0
INSERT
  5
147
100
AcDbEntity
  8
0
370
     0
390
0
  6
DOT
 62
     7
100
AcDbBlockReference
  2
hanging position
 10
-43.078849
 20
-79.659144
 30
0.0
  0
TEXT
  5
148
100
AcDbEntity
  8
0
370
     0
390
0
  6
Continuous
 62
   174
100
AcDbText
 10
-45.269599
 20
-78.210724
 30
0.0
 40
2.5
  1
#3
  7
Vcadd_HandPrnt
 72
     1
 11
-43.078849
 21
-78.210724
 31
0.0
100
AcDbText
  0
TEXT
  5
149
100
AcDbEntity
  8
0
370
     0
390
0
  6
Continuous
 62
   174
100
AcDbText
 10
-49.562932
 20
-81.210724
 30
0.0
 40
2.5
  1
Electric
  7
Vcadd_HandPrnt
 72
     1
 11
-43.078849
 21
-81.210724
 31
0.0
100
AcDbText
  0
INSERT
  5
14A
100
AcDbEntity
  8
0
370
     0
390
0
  6
DOT
 62
     7
100
AcDbBlockReference
  2
hanging position
 10
-43.078849
 20
-274.630422
 30
0.0
  0
TEXT
  5
14B
100
AcDbEntity
  8
0
370
     0
390
0
  6
Continuous
 62
   174
100
AcDbText
 10
-44.794266
 20
-273.182002
 30
0.0
 40
2.5
  1
#1
  7
Vcadd_HandPrnt
 72
     1
 11
-43.078849
 21
-273.182002
 31
0.0
100
AcDbText
  0
TEXT
  5
14C
100
AcDbEntity
  8
0
370
     0
390
0
  6
Continuous
 62
   174
100
AcDbText
 10
-49.562932
 20
-276.182002
 30
0.0
 40
2.5
  1
Electric
  7
Vcadd_HandPrnt
 72
     1
 11
-43.078849
 21
-276.182002
 31
0.0
100
AcDbText
  0
ELLIPSE
  5
14D
100
AcDbEntity
  8
0
370
     0
390
0
  6
Continuous
 62
     7
100
AcDbEllipse
 10
-252.610133
 20
-44.461261
 30
0.0
 11
-8.9098470612151743
 21
0.0
 31
0.0
210
0.0
220
0.0
230
1.0
 40
0.467593
 41
0.0
 42
6.2831853071795862
  0
TEXT
  5
14E
100
AcDbEntity
  8
0
370
     0
390
0
  6
Continuous
 62
   174
100
AcDbText
 10
-259.488452
 20
-45.482181
 30
0.0
 40
3.0
  1
+8'-0"
  7
Vcadd_HandPrnt
100
AcDbText
  0
LINE
  5
14F
100
AcDbEntity
  8
hidden positions
370
     0
390
0
  6
DOT
 62
     7
100
AcDbLine
 10
-121.960189
 20
-560.630422
 30
0.0
 11
-121.960189
 21
-33.51813
 31
0.0
  0
LINE
  5
150
100
AcDbEntity
  8
hidden positions
370
     0
390
0
  6
DOT
 62
     7
100
AcDbLine
 10
-122.960189
 20
-560.630422
 30
0.0
 11
-122.960189
 21
-33.51813
 31
0.0
  0
LINE
  5
151
100
AcDbEntity
  8
hidden positions
370
     0
390
0
  6
DOT
 62
     7
100
AcDbLine
 10
-517.960189
 20
-560.630422
 30
0.0
 11
-517.960189
 21
-33.51813
 31
0.0
  0
LINE
  5
152
100
AcDbEntity
  8
hidden positions
370
     0
390
0
  6
DOT
 62
     7
100
AcDbLine
 10
-222.247404
 20
-560.630422
 30
0.0
 11
-222.247404
 21
-33.51813
 31
0.0
  0
INSERT
  5
153
100
AcDbEntity
  8
0
370
     0
390
0
  6
DOT
 62
     7
100
AcDbBlockReference
  2
hanging position
 10
-26.579082
 20
-220.839739
 30
0.0
  0
LINE
  5
154
100
AcDbEntity
  8
0
370
     0
390
0
  6
DASHED
 62
     7
100
AcDbLine
 10
-405.156539
 20
-67.637323
 30
0.0
 11
-405.156539
 21
-67.637323
 31
0.0
  0
INSERT
  5
155
100
AcDbEntity
  8
0
370
     0
390
0
  6
DOT
 62
     7
100
AcDbBlockReference
  2
hanging position
 10
-447.109049
 20
-588.864561
 30
0.0
  0
TEXT
  5
156
100
AcDbEntity
  8
0
370
     0
390
0
  6
Continuous
 62
   174
100
AcDbText
 10
-449.330466
 20
-587.416142
 30
0.0
 40
2.5
  1
#2
  7
Vcadd_HandPrnt
 72
     1
 11
-447.109049
 21
-587.416142
 31
0.0
100
AcDbText
  0
TEXT
  5
157
100
AcDbEntity
  8
0
370
     0
390
0
  6
Continuous
 62
   174
100
AcDbText
 10
-449.192466
 20
-590.416142
 30
0.0
 40
2.5
  1
SR
  7
Vcadd_HandPrnt
 72
     1
 11
-447.109049
 21
-590.416142
 31
0.0
100
AcDbText
  0
TEXT
  5
158
100
AcDbEntity
  8
0
370
     0
390
0
  6
Continuous
 62
   174
100
AcDbText
 10
-450.355883
 20
-593.416142
 30
0.0
 40
2.5
  1
Tab
  7
Vcadd_HandPrnt
 72
     1
 11
-447.109049
 21
-593.416142
 31
0.0
100
AcDbText
  0
TEXT
  5
159
100
AcDbEntity
  8
0
370
     0
390
0
  6
Continuous
 62
   174
100
AcDbText
 10
-521.299799
 20
-587.416142
 30
0.0
 40
2.5
  1
#3
  7
Vcadd_HandPrnt
 72
     1
 11
-519.109049
 21
-587.416142
 31
0.0
100
AcDbText
  0
TEXT
  5
15A
100
AcDbEntity
  8
0
370
     0
390
0
  6
Continuous
 62
   174
100
AcDbText
 10
-521.192466
 20
-590.416142
 30
0.0
 40
2.5
  1
SR
  7
Vcadd_HandPrnt
 72
     1
 11
-519.109049
 21
-590.416142
 31
0.0
100
AcDbText
  0
TEXT
  5
15B
100
AcDbEntity
  8
0
370
     0
390
0
  6
Continuous
 62
   174
100
AcDbText
 10
-522.355883
 20
-593.416142
 30
0.0
 40
2.5
  1
Tab
  7
Vcadd_HandPrnt
 72
     1
 11
-519.109049
 21
-593.416142
 31
0.0
100
AcDbText
  0
INSERT
  5
15C
100
AcDbEntity
  8
0
370
     0
390
0
  6
DOT
 62
     7
100
AcDbBlockReference
  2
hanging position
 10
-193.960189
 20
-588.864561
 30
0.0
  0
TEXT
  5
15D
100
AcDbEntity
  8
0
370
     0
390
0
  6
Continuous
 62
   174
100
AcDbText
 10
-196.181606
 20
-587.416142
 30
0.0
 40
2.5
  1
#2
  7
Vcadd_HandPrnt
 72
     1
 11
-193.960189
 21
-587.416142
 31
0.0
100
AcDbText
  0
TEXT
  5
15E
100
AcDbEntity
  8
0
370
     0
390
0
  6
Continuous
 62
   174
100
AcDbText
 10
-195.765689
 20
-590.416142
 30
0.0
 40
2.5
  1
SL
  7
Vcadd_HandPrnt
 72
     1
 11
-193.960189
 21
-590.416142
 31
0.0
100
AcDbText
  0
TEXT
  5
15F
100
AcDbEntity
  8
0
370
     0
390
0
  6
Continuous
 62
   174
100
AcDbText
 10
-197.207023
 20
-593.416142
 30
0.0
 40
2.5
  1
Tab
  7
Vcadd_HandPrnt
 72
     1
 11
-193.960189
 21
-593.416142
 31
0.0
100
AcDbText
  0
TEXT
  5
160
100
AcDbEntity
  8
0
370
     0
390
0
  6
Continuous
 62
   174
100
AcDbText
 10
-124.150939
 20
-587.416142
 30
0.0
 40
2.5
  1
#3
  7
Vcadd_HandPrnt
 72
     1
 11
-121.960189
 21
-587.416142
 31
0.0
100
AcDbText
  0
TEXT
  5
161
100
AcDbEntity
  8
0
370
     0
390
0
  6
Continuous
 62
   174
100
AcDbText
 10
-123.765689
 20
-590.416142
 30
0.0
 40
2.5
  1
SL
  7
Vcadd_HandPrnt
 72
     1
 11
-121.960189
 21
-590.416142
 31
0.0
100
AcDbText
  0
TEXT
  5
162
100
AcDbEntity
  8
0
370
     0
390
0
  6
Continuous
 62
   174
100
AcDbText
 10
-125.207023
 20
-593.416142
 30
0.0
 40
2.5
  1
Tab
  7
Vcadd_HandPrnt
 72
     1
 11
-121.960189
 21
-593.416142
 31
0.0
100
AcDbText
  0
LINE
  5
163
100
AcDbEntity
  8
hidden positions
370
     0
390
0
  6
DOT
 62
     7
100
AcDbLine
 10
-192.960189
 20
-33.51813
 30
0.0
 11
-192.960189
 21
-294.630422
 31
0.0
  0
LINE
  5
164
100
AcDbEntity
  8
hidden positions
370
     0
390
0
  6
DOT
 62
     7
100
AcDbLine
 10
-193.960189
 20
-33.51813
 30
0.0
 11
-193.960189
 21
-294.630422
 31
0.0
  0
LINE
  5
165
100
AcDbEntity
  8
hidden positions
370
     0
390
0
  6
DOT
 62
     7
100
AcDbLine
 10
-194.960189
 20
-33.51813
 30
0.0
 11
-194.960189
 21
-294.630422
 31
0.0
  0
LINE
  5
166
100
AcDbEntity
  8
hidden positions
370
     0
390
0
  6
DOT
 62
     7
100
AcDbLine
 10
-447.960189
 20
-33.51813
 30
0.0
 11
-447.960189
 21
-294.630422
 31
0.0
  0
LINE
  5
167
100
AcDbEntity
  8
hidden positions
370
     0
390
0
  6
DOT
 62
     7
100
AcDbLine
 10
-446.960189
 20
-33.51813
 30
0.0
 11
-446.960189
 21
-294.630422
 31
0.0
  0
LINE
  5
168
100
AcDbEntity
  8
hidden positions
370
     0
390
0
  6
DOT
 62
     7
100
AcDbLine
 10
-445.960189
 20
-33.51813
 30
0.0
 11
-445.960189
 21
-294.630422
 31
0.0
  0
INSERT
  5
169
100
AcDbEntity
  8
0
370
     0
390
0
  6
DOT
 62
     7
100
AcDbBlockReference
  2
hanging position
 10
-43.078849
 20
-421.630422
 30
0.0
  0
INSERT
  5
16A
100
AcDbEntity
  8
0
370
     0
390
0
  6
DOT
 62
     7
100
AcDbBlockReference
  2
hanging position
 10
-43.078849
 20
-559.630422
 30
0.0
  0
POLYLINE
  5
16B
100
AcDbEntity
  8
0
370
     0
390
0
  6
Continuous
 62
     7
100
AcDb2dPolyline
 66
     1
 10
0.0
 20
0.0
 30
0.0
 70
   129
  0
VERTEX
  5
16C
100
AcDbEntity
  8
0
370
     0
390
0
  6
Continuous
 62
     7
100
AcDbVertex
100
AcDb2dVertex
 10
-67.960189
 20
-24.630422
 30
0.0
  0
VERTEX
  5
16D
100
AcDbEntity
  8
0
370
     0
390
0
  6
Continuous
 62
     7
100
AcDbVertex
100
AcDb2dVertex
 10
-572.960189
 20
-24.630422
 30
0.0
  0
VERTEX
  5
16E
100
AcDbEntity
  8
0
370
     0
390
0
  6
Continuous
 62
     7
100
AcDbVertex
100
AcDb2dVertex
 10
-572.960189
 20
-570.387114
 30
0.0
  0
VERTEX
  5
16F
100
AcDbEntity
  8
0
370
     0
390
0
  6
Continuous
 62
     7
100
AcDbVertex
100
AcDb2dVertex
 10
-569.706931
 20
-564.346137
 30
0.0
  0
VERTEX
  5
170
100
AcDbEntity
  8
0
370
     0
390
0
  6
Continuous
 62
     7
100
AcDbVertex
100
AcDb2dVertex
 10
-566.960189
 20
-576.387114
 30
0.0
  0
VERTEX
  5
171
100
AcDbEntity
  8
0
370
     0
390
0
  6
Continuous
 62
     7
100
AcDbVertex
100
AcDb2dVertex
 10
-566.960189
 20
-30.630422
 30
0.0
  0
VERTEX
  5
172
100
AcDbEntity
  8
0
370
     0
390
0
  6
Continuous
 62
     7
100
AcDbVertex
100
AcDb2dVertex
 10
-73.960189
 20
-30.630422
 30
0.0
  0
VERTEX
  5
173
100
AcDbEntity
  8
0
370
     0
390
0
  6
Continuous
 62
     7
100
AcDbVertex
100
AcDb2dVertex
 10
-73.960189
 20
-582.591267
 30
0.0
  0
VERTEX
  5
174
100
AcDbEntity
  8
0
370
     0
390
0
  6
Continuous
 62
     7
100
AcDbVertex
100
AcDb2dVertex
 10
-70.971856
 20
-567.395662
 30
0.0
  0
VERTEX
  5
175
100
AcDbEntity
  8
0
370
     0
390
0
  6
Continuous
 62
     7
100
AcDbVertex
100
AcDb2dVertex
 10
-67.960189
 20
-576.591267
 30
0.0
  0
SEQEND
  5
176
100
AcDbEntity
  8
0
370
     0
390
0
  6
Continuous
 62
     7
  0
POLYLINE
  5
177
100
AcDbEntity
  8
hidden positions
370
     0
390
0
  6
DOT
 62
     7
100
AcDb2dPolyline
 66
     1
 10
0.0
 20
0.0
 30
0.0
 70
   128
  0
VERTEX
  5
178
100
AcDbEntity
  8
hidden positions
370
     0
390
0
  6
DOT
 62
     7
100
AcDbVertex
100
AcDb2dVertex
 10
-566.960189
 20
-274.630422
 30
0.0
  0
VERTEX
  5
179
100
AcDbEntity
  8
hidden positions
370
     0
390
0
  6
DOT
 62
     7
100
AcDbVertex
100
AcDb2dVertex
 10
-320.460189
 20
-274.630422
 30
0.0
  0
VERTEX
  5
17A
100
AcDbEntity
  8
hidden positions
370
     0
390
0
  6
DOT
 62
     7
100
AcDbVertex
100
AcDb2dVertex
 10
-73.960189
 20
-274.630422
 30
0.0
  0
SEQEND
  5
17B
100
AcDbEntity
  8
hidden positions
370
     0
390
0
  6
DOT
 62
     7
  0
POLYLINE
  5
17C
100
AcDbEntity
  8
hidden positions
370
     0
390
0
  6
DOT
 62
     7
100
AcDb2dPolyline
 66
     1
 10
0.0
 20
0.0
 30
0.0
 70
   128
  0
VERTEX
  5
17D
100
AcDbEntity
  8
hidden positions
370
     0
390
0
  6
DOT
 62
     7
100
AcDbVertex
100
AcDb2dVertex
 10
-566.960189
 20
-275.630422
 30
0.0
  0
VERTEX
  5
17E
100
AcDbEntity
  8
hidden positions
370
     0
390
0
  6
DOT
 62
     7
100
AcDbVertex
100
AcDb2dVertex
 10
-320.460189
 20
-275.630422
 30
0.0
  0
VERTEX
  5
17F
100
AcDbEntity
  8
hidden positions
370
     0
390
0
  6
DOT
 62
     7
100
AcDbVertex
100
AcDb2dVertex
 10
-73.960189
 20
-275.630422
 30
0.0
  0
SEQEND
  5
180
100
AcDbEntity
  8
hidden positions
370
     0
390
0
  6
DOT
 62
     7
  0
POLYLINE
  5
181
100
AcDbEntity
  8
hidden positions
370
     0
390
0
  6
DOT
 62
     7
100
AcDb2dPolyline
 66
     1
 10
0.0
 20
0.0
 30
0.0
 70
   128
  0
VERTEX
  5
182
100
AcDbEntity
  8
hidden positions
370
     0
390
0
  6
DOT
 62
     7
100
AcDbVertex
100
AcDb2dVertex
 10
-566.960189
 20
-420.630422
 30
0.0
  0
VERTEX
  5
183
100
AcDbEntity
  8
hidden positions
370
     0
390
0
  6
DOT
 62
     7
100
AcDbVertex
100
AcDb2dVertex
 10
-320.460189
 20
-420.630422
 30
0.0
  0
VERTEX
  5
184
100
AcDbEntity
  8
hidden positions
370
     0
390
0
  6
DOT
 62
     7
100
AcDbVertex
100
AcDb2dVertex
 10
-73.960189
 20
-420.630422
 30
0.0
  0
SEQEND
  5
185
100
AcDbEntity
  8
hidden positions
370
     0
390
0
  6
DOT
 62
     7
  0
POLYLINE
  5
186
100
AcDbEntity
  8
hidden positions
370
     0
390
0
  6
DOT
 62
     7
100
AcDb2dPolyline
 66
     1
 10
0.0
 20
0.0
 30
0.0
 70
   128
  0
VERTEX
  5
187
100
AcDbEntity
  8
hidden positions
370
     0
390
0
  6
DOT
 62
     7
100
AcDbVertex
100
AcDb2dVertex
 10
-566.960189
 20
-421.630422
 30
0.0
  0
VERTEX
  5
188
100
AcDbEntity
  8
hidden positions
370
     0
390
0
  6
DOT
 62
     7
100
AcDbVertex
100
AcDb2dVertex
 10
-320.460189
 20
-421.630422
 30
0.0
  0
VERTEX
  5
189
100
AcDbEntity
  8
hidden positions
370
     0
390
0
  6
DOT
 62
     7
100
AcDbVertex
100
AcDb2dVertex
 10
-73.960189
 20
-421.630422
 30
0.0
  0
SEQEND
  5
18A
100
AcDbEntity
  8
hidden positions
370
     0
390
0
  6
DOT
 62
     7
  0
POLYLINE
  5
18B
100
AcDbEntity
  8
hidden positions
370
     0
390
0
  6
DOT
 62
     7
100
AcDb2dPolyline
 66
     1
 10
0.0
 20
0.0
 30
0.0
 70
   128
  0
VERTEX
  5
18C
100
AcDbEntity
  8
hidden positions
370
     0
390
0
  6
DOT
 62
     7
100
AcDbVertex
100
AcDb2dVertex
 10
-566.960189
 20
-422.630422
 30
0.0
  0
VERTEX
  5
18D
100
AcDbEntity
  8
hidden positions
370
     0
390
0
  6
DOT
 62
     7
100
AcDbVertex
100
AcDb2dVertex
 10
-320.460189
 20
-422.630422
 30
0.0
  0
VERTEX
  5
18E
100
AcDbEntity
  8
hidden positions
370
     0
390
0
  6
DOT
 62
     7
100
AcDbVertex
100
AcDb2dVertex
 10
-73.960189
 20
-422.630422
 30
0.0
  0
SEQEND
  5
18F
100
AcDbEntity
  8
hidden positions
370
     0
390
0
  6
DOT
 62
     7
  0
POLYLINE
  5
190
100
AcDbEntity
  8
hidden positions
370
     0
390
0
  6
DOT
 62
     7
100
AcDb2dPolyline
 66
     1
 10
0.0
 20
0.0
 30
0.0
 70
   128
  0
VERTEX
  5
191
100
AcDbEntity
  8
hidden positions
370
     0
390
0
  6
DOT
 62
     7
100
AcDbVertex
100
AcDb2dVertex
 10
-566.960189
 20
-558.630422
 30
0.0
  0
VERTEX
  5
192
100
AcDbEntity
  8
hidden positions
370
     0
390
0
  6
DOT
 62
     7
100
AcDbVertex
100
AcDb2dVertex
 10
-220.247404
 20
-558.630422
 30
0.0
  0
VERTEX
  5
193
100
AcDbEntity
  8
hidden positions
370
     0
390
0
  6
DOT
 62
     7
100
AcDbVertex
100
AcDb2dVertex
 10
-73.960189
 20
-558.630422
 30
0.0
  0
SEQEND
  5
194
100
AcDbEntity
  8
hidden positions
370
     0
390
0
  6
DOT
 62
     7
  0
POLYLINE
  5
195
100
AcDbEntity
  8
hidden positions
370
     0
390
0
  6
DOT
 62
     7
100
AcDb2dPolyline
 66
     1
 10
0.0
 20
0.0
 30
0.0
 70
   128
  0
VERTEX
  5
196
100
AcDbEntity
  8
hidden positions
370
     0
390
0
  6
DOT
 62
     7
100
AcDbVertex
100
AcDb2dVertex
 10
-566.960189
 20
-559.630422
 30
0.0
  0
VERTEX
  5
197
100
AcDbEntity
  8
hidden positions
370
     0
390
0
  6
DOT
 62
     7
100
AcDbVertex
100
AcDb2dVertex
 10
-320.460189
 20
-559.630422
 30
0.0
  0
VERTEX
  5
198
100
AcDbEntity
  8
hidden positions
370
     0
390
0
  6
DOT
 62
     7
100
AcDbVertex
100
AcDb2dVertex
 10
-73.960189
 20
-559.630422
 30
0.0
  0
SEQEND
  5
199
100
AcDbEntity
  8
hidden positions
370
     0
390
0
  6
DOT
 62
     7
  0
POLYLINE
  5
19A
100
AcDbEntity
  8
hidden positions
370
     0
390
0
  6
DOT
 62
     7
100
AcDb2dPolyline
 66
     1
 10
0.0
 20
0.0
 30
0.0
 70
   128
  0
VERTEX
  5
19B
100
AcDbEntity
  8
hidden positions
370
     0
390
0
  6
DOT
 62
     7
100
AcDbVertex
100
AcDb2dVertex
 10
-566.960189
 20
-560.685449
 30
0.0
  0
VERTEX
  5
19C
100
AcDbEntity
  8
hidden positions
370
     0
390
0
  6
DOT
 62
     7
100
AcDbVertex
100
AcDb2dVertex
 10
-320.460189
 20
-560.630422
 30
0.0
  0
VERTEX
  5
19D
100
AcDbEntity
  8
hidden positions
370
     0
390
0
  6
DOT
 62
     7
100
AcDbVertex
100
AcDb2dVertex
 10
-73.960189
 20
-560.647433
 30
0.0
  0
SEQEND
  5
19E
100
AcDbEntity
  8
hidden positions
370
     0
390
0
  6
DOT
 62
     7
  0
TEXT
  5
19F
100
AcDbEntity
  8
0
370
     0
390
0
  6
Continuous
 62
   174
100
AcDbText
 10
-34.046415
 20
-221.391319
 30
0.0
 40
2.5
  1
Catwalk
  7
Vcadd_HandPrnt
 72
     1
 11
-26.579082
 21
-221.391319
 31
0.0
100
AcDbText
  0
TEXT
  5
1A0
100
AcDbEntity
  8
0
370
     0
390
0
  6
Continuous
 62
   174
100
AcDbText
 10
-45.707749
 20
-558.182002
 30
0.0
 40
3.0
  1
#3
  7
Vcadd_HandPrnt
 72
     1
 11
-43.078849
 21
-558.182002
 31
0.0
100
AcDbText
  0
TEXT
  5
1A1
100
AcDbEntity
  8
0
370
     0
390
0
  6
Continuous
 62
   174
100
AcDbText
 10
-47.662749
 20
-561.782002
 30
0.0
 40
3.0
  1
FOH
  7
Vcadd_HandPrnt
 72
     1
 11
-43.078849
 21
-561.782002
 31
0.0
100
AcDbText
  0
INSERT
  5
1A2
100
AcDbEntity
  8
0
370
     0
390
0
  6
DOT
 62
     7
100
AcDbBlockReference
  2
hanging position
 10
-121.960189
 20
-6.999874
 30
0.0
  0
INSERT
  5
1A3
100
AcDbEntity
  8
0
370
     0
390
0
  6
DOT
 62
     7
100
AcDbBlockReference
  2
hanging position
 10
-221.247404
 20
-6.999874
 30
0.0
  0
INSERT
  5
1A4
100
AcDbEntity
  8
0
370
     0
390
0
  6
DOT
 62
     7
100
AcDbBlockReference
  2
hanging position
 10
-419.821834
 20
-6.999874
 30
0.0
  0
INSERT
  5
1A5
100
AcDbEntity
  8
0
370
     0
390
0
  6
DOT
 62
     7
100
AcDbBlockReference
  2
hanging position
 10
-519.109049
 20
-6.999874
 30
0.0
  0
TEXT
  5
1A6
100
AcDbEntity
  8
0
370
     0
390
0
  6
Continuous
 62
   174
100
AcDbText
 10
-222.962821
 20
-5.551455
 30
0.0
 40
2.5
  1
#1
  7
Vcadd_HandPrnt
 72
     1
 11
-221.247404
 21
-5.551455
 31
0.0
100
AcDbText
  0
TEXT
  5
1A7
100
AcDbEntity
  8
0
370
     0
390
0
  6
Continuous
 62
   174
100
AcDbText
 10
-223.052904
 20
-8.551455
 30
0.0
 40
2.5
  1
SL
  7
Vcadd_HandPrnt
 72
     1
 11
-221.247404
 21
-8.551455
 31
0.0
100
AcDbText
  0
TEXT
  5
1A8
100
AcDbEntity
  8
0
370
     0
390
0
  6
Continuous
 62
   174
100
AcDbText
 10
-224.494238
 20
-11.551455
 30
0.0
 40
2.5
  1
Tab
  7
Vcadd_HandPrnt
 72
     1
 11
-221.247404
 21
-11.551455
 31
0.0
100
AcDbText
  0
TEXT
  5
1A9
100
AcDbEntity
  8
0
370
     0
390
0
  6
Continuous
 62
   174
100
AcDbText
 10
-421.537251
 20
-5.551455
 30
0.0
 40
2.5
  1
#1
  7
Vcadd_HandPrnt
 72
     1
 11
-419.821834
 21
-5.551455
 31
0.0
100
AcDbText
  0
TEXT
  5
1AA
100
AcDbEntity
  8
0
370
     0
390
0
  6
Continuous
 62
   174
100
AcDbText
 10
-421.905251
 20
-8.551455
 30
0.0
 40
2.5
  1
SR
  7
Vcadd_HandPrnt
 72
     1
 11
-419.821834
 21
-8.551455
 31
0.0
100
AcDbText
  0
TEXT
  5
1AB
100
AcDbEntity
  8
0
370
     0
390
0
  6
Continuous
 62
   174
100
AcDbText
 10
-423.068668
 20
-11.551455
 30
0.0
 40
2.5
  1
Tab
  7
Vcadd_HandPrnt
 72
     1
 11
-419.821834
 21
-11.551455
 31
0.0
100
AcDbText
  0
INSERT
  5
1AC
100
AcDbEntity
  8
0
370
     0
390
0
  6
DOT
 62
     7
100
AcDbBlockReference
  2
hanging position
 10
-447.109049
 20
-6.999874
 30
0.0
  0
TEXT
  5
1AD
100
AcDbEntity
  8
0
370
     0
390
0
  6
Continuous
 62
   174
100
AcDbText
 10
-449.330466
 20
-5.551455
 30
0.0
 40
2.5
  1
#2
  7
Vcadd_HandPrnt
 72
     1
 11
-447.109049
 21
-5.551455
 31
0.0
100
AcDbText
  0
TEXT
  5
1AE
100
AcDbEntity
  8
0
370
     0
390
0
  6
Continuous
 62
   174
100
AcDbText
 10
-449.192466
 20
-8.551455
 30
0.0
 40
2.5
  1
SR
  7
Vcadd_HandPrnt
 72
     1
 11
-447.109049
 21
-8.551455
 31
0.0
100
AcDbText
  0
TEXT
  5
1AF
100
AcDbEntity
  8
0
370
     0
390
0
  6
Continuous
 62
   174
100
AcDbText
 10
-450.355883
 20
-11.551455
 30
0.0
 40
2.5
  1
Tab
  7
Vcadd_HandPrnt
 72
     1
 11
-447.109049
 21
-11.551455
 31
0.0
100
AcDbText
  0
TEXT
  5
1B0
100
AcDbEntity
  8
0
370
     0
390
0
  6
Continuous
 62
   174
100
AcDbText
 10
-521.299799
 20
-5.551455
 30
0.0
 40
2.5
  1
#3
  7
Vcadd_HandPrnt
 72
     1
 11
-519.109049
 21
-5.551455
 31
0.0
100
AcDbText
  0
TEXT
  5
1B1
100
AcDbEntity
  8
0
370
     0
390
0
  6
Continuous
 62
   174
100
AcDbText
 10
-521.192466
 20
-8.551455
 30
0.0
 40
2.5
  1
SR
  7
Vcadd_HandPrnt
 72
     1
 11
-519.109049
 21
-8.551455
 31
0.0
100
AcDbText
  0
TEXT
  5
1B2
100
AcDbEntity
  8
0
370
     0
390
0
  6
Continuous
 62
   174
100
AcDbText
 10
-522.355883
 20
-11.551455
 30
0.0
 40
2.5
  1
Tab
  7
Vcadd_HandPrnt
 72
     1
 11
-519.109049
 21
-11.551455
 31
0.0
100
AcDbText
  0
INSERT
  5
1B3
100
AcDbEntity
  8
0
370
     0
390
0
  6
DOT
 62
     7
100
AcDbBlockReference
  2
hanging position
 10
-193.960189
 20
-6.999874
 30
0.0
  0
TEXT
  5
1B4
100
AcDbEntity
  8
0
370
     0
390
0
  6
Continuous
 62
   174
100
AcDbText
 10
-196.181606
 20
-5.551455
 30
0.0
 40
2.5
  1
#2
  7
Vcadd_HandPrnt
 72
     1
 11
-193.960189
 21
-5.551455
 31
0.0
100
AcDbText
  0
TEXT
  5
1B5
100
AcDbEntity
  8
0
370
     0
390
0
  6
Continuous
 62
   174
100
AcDbText
 10
-195.765689
 20
-8.551455
 30
0.0
 40
2.5
  1
SL
  7
Vcadd_HandPrnt
 72
     1
 11
-193.960189
 21
-8.551455
 31
0.0
100
AcDbText
  0
TEXT
  5
1B6
100
AcDbEntity
  8
0
370
     0
390
0
  6
Continuous
 62
   174
100
AcDbText
 10
-197.207023
 20
-11.551455
 30
0.0
 40
2.5
  1
Tab
  7
Vcadd_HandPrnt
 72
     1
 11
-193.960189
 21
-11.551455
 31
0.0
100
AcDbText
  0
TEXT
  5
1B7
100
AcDbEntity
  8
0
370
     0
390
0
  6
Continuous
 62
   174
100
AcDbText
 10
-124.150939
 20
-5.551455
 30
0.0
 40
2.5
  1
#3
  7
Vcadd_HandPrnt
 72
     1
 11
-121.960189
 21
-5.551455
 31
0.0
100
AcDbText
  0
TEXT
  5
1B8
100
AcDbEntity
  8
0
370
     0
390
0
  6
Continuous
 62
   174
100
AcDbText
 10
-123.765689
 20
-8.551455
 30
0.0
 40
2.5
  1
SL
  7
Vcadd_HandPrnt
 72
     1
 11
-121.960189
 21
-8.551455
 31
0.0
100
AcDbText
  0
TEXT
  5
1B9
100
AcDbEntity
  8
0
370
     0
390
0
  6
Continuous
 62
   174
100
AcDbText
 10
-125.207023
 20
-11.551455
 30
0.0
 40
2.5
  1
Tab
  7
Vcadd_HandPrnt
 72
     1
 11
-121.960189
 21
-11.551455
 31
0.0
100
AcDbText
  0
INSERT
  5
1BA
100
AcDbEntity
  8
hidden positions
370
     0
390
0
  6
DOT
 62
     7
100
AcDbBlockReference
  2
hanging position
 10
-121.960189
 20
-394.909666
 30
0.0
  0
INSERT
  5
1BB
100
AcDbEntity
  8
hidden positions
370
     0
390
0
  6
DOT
 62
     7
100
AcDbBlockReference
  2
hanging position
 10
-221.247404
 20
-394.909666
 30
0.0
  0
TEXT
  5
1BC
100
AcDbEntity
  8
hidden positions
370
     0
390
0
  6
Continuous
 62
   174
100
AcDbText
 10
-222.962821
 20
-393.461246
 30
0.0
 40
2.5
  1
#1
  7
Vcadd_HandPrnt
 72
     1
 11
-221.247404
 21
-393.461246
 31
0.0
100
AcDbText
  0
TEXT
  5
1BD
100
AcDbEntity
  8
hidden positions
370
     0
390
0
  6
Continuous
 62
   174
100
AcDbText
 10
-223.052904
 20
-396.461246
 30
0.0
 40
2.5
  1
SL
  7
Vcadd_HandPrnt
 72
     1
 11
-221.247404
 21
-396.461246
 31
0.0
100
AcDbText
  0
TEXT
  5
1BE
100
AcDbEntity
  8
hidden positions
370
     0
390
0
  6
Continuous
 62
   174
100
AcDbText
 10
-224.494238
 20
-399.461246
 30
0.0
 40
2.5
  1
Tab
  7
Vcadd_HandPrnt
 72
     1
 11
-221.247404
 21
-399.461246
 31
0.0
100
AcDbText
  0
TEXT
  5
1BF
100
AcDbEntity
  8
hidden positions
370
     0
390
0
  6
Continuous
 62
   174
100
AcDbText
 10
-124.150939
 20
-393.461246
 30
0.0
 40
2.5
  1
#3
  7
Vcadd_HandPrnt
 72
     1
 11
-121.960189
 21
-393.461246
 31
0.0
100
AcDbText
  0
TEXT
  5
1C0
100
AcDbEntity
  8
hidden positions
370
     0
390
0
  6
Continuous
 62
   174
100
AcDbText
 10
-123.765689
 20
-396.461246
 30
0.0
 40
2.5
  1
SL
  7
Vcadd_HandPrnt
 72
     1
 11
-121.960189
 21
-396.461246
 31
0.0
100
AcDbText
  0
TEXT
  5
1C1
100
AcDbEntity
  8
hidden positions
370
     0
390
0
  6
Continuous
 62
   174
100
AcDbText
 10
-125.207023
 20
-399.461246
 30
0.0
 40
2.5
  1
Tab
  7
Vcadd_HandPrnt
 72
     1
 11
-121.960189
 21
-399.461246
 31
0.0
100
AcDbText
  0
INSERT
  5
1C2
100
AcDbEntity
  8
hidden positions
370
     0
390
0
  6
DOT
 62
     7
100
AcDbBlockReference
  2
hanging position
 10
-419.821834
 20
-394.909666
 30
0.0
  0
INSERT
  5
1C3
100
AcDbEntity
  8
hidden positions
370
     0
390
0
  6
DOT
 62
     7
100
AcDbBlockReference
  2
hanging position
 10
-519.109049
 20
-394.909666
 30
0.0
  0
TEXT
  5
1C4
100
AcDbEntity
  8
hidden positions
370
     0
390
0
  6
Continuous
 62
   174
100
AcDbText
 10
-421.537251
 20
-393.461246
 30
0.0
 40
2.5
  1
#1
  7
Vcadd_HandPrnt
 72
     1
 11
-419.821834
 21
-393.461246
 31
0.0
100
AcDbText
  0
TEXT
  5
1C5
100
AcDbEntity
  8
hidden positions
370
     0
390
0
  6
Continuous
 62
   174
100
AcDbText
 10
-421.905251
 20
-396.461246
 30
0.0
 40
2.5
  1
SR
  7
Vcadd_HandPrnt
 72
     1
 11
-419.821834
 21
-396.461246
 31
0.0
100
AcDbText
  0
TEXT
  5
1C6
100
AcDbEntity
  8
hidden positions
370
     0
390
0
  6
Continuous
 62
   174
100
AcDbText
 10
-423.068668
 20
-399.461246
 30
0.0
 40
2.5
  1
Tab
  7
Vcadd_HandPrnt
 72
     1
 11
-419.821834
 21
-399.461246
 31
0.0
100
AcDbText
  0
TEXT
  5
1C7
100
AcDbEntity
  8
hidden positions
370
     0
390
0
  6
Continuous
 62
   174
100
AcDbText
 10
-521.299799
 20
-393.461246
 30
0.0
 40
2.5
  1
#3
  7
Vcadd_HandPrnt
 72
     1
 11
-519.109049
 21
-393.461246
 31
0.0
100
AcDbText
  0
TEXT
  5
1C8
100
AcDbEntity
  8
hidden positions
370
     0
390
0
  6
Continuous
 62
   174
100
AcDbText
 10
-521.192466
 20
-396.461246
 30
0.0
 40
2.5
  1
SR
  7
Vcadd_HandPrnt
 72
     1
 11
-519.109049
 21
-396.461246
 31
0.0
100
AcDbText
  0
TEXT
  5
1C9
100
AcDbEntity
  8
hidden positions
370
     0
390
0
  6
Continuous
 62
   174
100
AcDbText
 10
-522.355883
 20
-399.461246
 30
0.0
 40
2.5
  1
Tab
  7
Vcadd_HandPrnt
 72
     1
 11
-519.109049
 21
-399.461246
 31
0.0
100
AcDbText
  0
LINE
  5
1CA
100
AcDbEntity
  8
hidden positions
370
     0
390
0
  6
Continuous
 62
   174
100
AcDbLine
 10
-192.960189
 20
-192.002041
 30
0.0
 11
-192.960189
 21
-192.002041
 31
0.0
  0
LINE
  5
1CB
100
AcDbEntity
  8
hidden positions
370
     0
390
0
  6
Continuous
 62
   174
100
AcDbLine
 10
-192.960189
 20
-192.002041
 30
0.0
 11
-192.960189
 21
-192.002041
 31
0.0
  0
LINE
  5
1CC
100
AcDbEntity
  8
hidden positions
370
     0
390
0
  6
Continuous
 62
   174
100
AcDbLine
 10
-192.960189
 20
-192.002041
 30
0.0
 11
-192.960189
 21
-192.002041
 31
0.0
  0
LINE
  5
1CD
100
AcDbEntity
  8
hidden positions
370
     0
390
0
  6
Continuous
 62
   174
100
AcDbLine
 10
-192.960189
 20
-192.002041
 30
0.0
 11
-192.960189
 21
-192.002041
 31
0.0
  0
INSERT
  5
1CE
100
AcDbEntity
  8
hidden positions
370
     0
390
0
  6
DOT
 62
     7
100
AcDbBlockReference
  2
hanging position
 10
-419.821834
 20
-200.95477
 30
0.0
  0
INSERT
  5
1CF
100
AcDbEntity
  8
hidden positions
370
     0
390
0
  6
DOT
 62
     7
100
AcDbBlockReference
  2
hanging position
 10
-519.109049
 20
-200.95477
 30
0.0
  0
TEXT
  5
1D0
100
AcDbEntity
  8
hidden positions
370
     0
390
0
  6
Continuous
 62
   174
100
AcDbText
 10
-222.962821
 20
-199.50635
 30
0.0
 40
2.5
  1
#1
  7
Vcadd_HandPrnt
 72
     1
 11
-221.247404
 21
-199.50635
 31
0.0
100
AcDbText
  0
TEXT
  5
1D1
100
AcDbEntity
  8
hidden positions
370
     0
390
0
  6
Continuous
 62
   174
100
AcDbText
 10
-223.052904
 20
-202.50635
 30
0.0
 40
2.5
  1
SL
  7
Vcadd_HandPrnt
 72
     1
 11
-221.247404
 21
-202.50635
 31
0.0
100
AcDbText
  0
TEXT
  5
1D2
100
AcDbEntity
  8
hidden positions
370
     0
390
0
  6
Continuous
 62
   174
100
AcDbText
 10
-224.494238
 20
-205.50635
 30
0.0
 40
2.5
  1
Tab
  7
Vcadd_HandPrnt
 72
     1
 11
-221.247404
 21
-205.50635
 31
0.0
100
AcDbText
  0
TEXT
  5
1D3
100
AcDbEntity
  8
hidden positions
370
     0
390
0
  6
Continuous
 62
   174
100
AcDbText
 10
-421.537251
 20
-199.50635
 30
0.0
 40
2.5
  1
#1
  7
Vcadd_HandPrnt
 72
     1
 11
-419.821834
 21
-199.50635
 31
0.0
100
AcDbText
  0
TEXT
  5
1D4
100
AcDbEntity
  8
hidden positions
370
     0
390
0
  6
Continuous
 62
   174
100
AcDbText
 10
-421.905251
 20
-202.50635
 30
0.0
 40
2.5
  1
SR
  7
Vcadd_HandPrnt
 72
     1
 11
-419.821834
 21
-202.50635
 31
0.0
100
AcDbText
  0
TEXT
  5
1D5
100
AcDbEntity
  8
hidden positions
370
     0
390
0
  6
Continuous
 62
   174
100
AcDbText
 10
-423.068668
 20
-205.50635
 30
0.0
 40
2.5
  1
Tab
  7
Vcadd_HandPrnt
 72
     1
 11
-419.821834
 21
-205.50635
 31
0.0
100
AcDbText
  0
INSERT
  5
1D6
100
AcDbEntity
  8
hidden positions
370
     0
390
0
  6
DOT
 62
     7
100
AcDbBlockReference
  2
hanging position
 10
-447.109049
 20
-200.95477
 30
0.0
  0
TEXT
  5
1D7
100
AcDbEntity
  8
hidden positions
370
     0
390
0
  6
Continuous
 62
   174
100
AcDbText
 10
-449.330466
 20
-199.50635
 30
0.0
 40
2.5
  1
#2
  7
Vcadd_HandPrnt
 72
     1
 11
-447.109049
 21
-199.50635
 31
0.0
100
AcDbText
  0
TEXT
  5
1D8
100
AcDbEntity
  8
hidden positions
370
     0
390
0
  6
Continuous
 62
   174
100
AcDbText
 10
-449.192466
 20
-202.50635
 30
0.0
 40
2.5
  1
SR
  7
Vcadd_HandPrnt
 72
     1
 11
-447.109049
 21
-202.50635
 31
0.0
100
AcDbText
  0
TEXT
  5
1D9
100
AcDbEntity
  8
hidden positions
370
     0
390
0
  6
Continuous
 62
   174
100
AcDbText
 10
-450.355883
 20
-205.50635
 30
0.0
 40
2.5
  1
Tab
  7
Vcadd_HandPrnt
 72
     1
 11
-447.109049
 21
-205.50635
 31
0.0
100
AcDbText
  0
TEXT
  5
1DA
100
AcDbEntity
  8
hidden positions
370
     0
390
0
  6
Continuous
 62
   174
100
AcDbText
 10
-521.299799
 20
-199.50635
 30
0.0
 40
2.5
  1
#3
  7
Vcadd_HandPrnt
 72
     1
 11
-519.109049
 21
-199.50635
 31
0.0
100
AcDbText
  0
TEXT
  5
1DB
100
AcDbEntity
  8
hidden positions
370
     0
390
0
  6
Continuous
 62
   174
100
AcDbText
 10
-521.192466
 20
-202.50635
 30
0.0
 40
2.5
  1
SR
  7
Vcadd_HandPrnt
 72
     1
 11
-519.109049
 21
-202.50635
 31
0.0
100
AcDbText
  0
TEXT
  5
1DC
100
AcDbEntity
  8
hidden positions
370
     0
390
0
  6
Continuous
 62
   174
100
AcDbText
 10
-522.355883
 20
-205.50635
 30
0.0
 40
2.5
  1
Tab
  7
Vcadd_HandPrnt
 72
     1
 11
-519.109049
 21
-205.50635
 31
0.0
100
AcDbText
  0
INSERT
  5
1DD
100
AcDbEntity
  8
hidden positions
370
     0
390
0
  6
DOT
 62
     7
100
AcDbBlockReference
  2
hanging position
 10
-193.960189
 20
-200.95477
 30
0.0
  0
TEXT
  5
1DE
100
AcDbEntity
  8
hidden positions
370
     0
390
0
  6
Continuous
 62
   174
100
AcDbText
 10
-196.181606
 20
-199.50635
 30
0.0
 40
2.5
  1
#2
  7
Vcadd_HandPrnt
 72
     1
 11
-193.960189
 21
-199.50635
 31
0.0
100
AcDbText
  0
TEXT
  5
1DF
100
AcDbEntity
  8
hidden positions
370
     0
390
0
  6
Continuous
 62
   174
100
AcDbText
 10
-195.765689
 20
-202.50635
 30
0.0
 40
2.5
  1
SL
  7
Vcadd_HandPrnt
 72
     1
 11
-193.960189
 21
-202.50635
 31
0.0
100
AcDbText
  0
TEXT
  5
1E0
100
AcDbEntity
  8
hidden positions
370
     0
390
0
  6
Continuous
 62
   174
100
AcDbText
 10
-197.207023
 20
-205.50635
 30
0.0
 40
2.5
  1
Tab
  7
Vcadd_HandPrnt
 72
     1
 11
-193.960189
 21
-205.50635
 31
0.0
100
AcDbText
  0
TEXT
  5
1E1
100
AcDbEntity
  8
hidden positions
370
     0
390
0
  6
Continuous
 62
   174
100
AcDbText
 10
-124.150939
 20
-199.50635
 30
0.0
 40
2.5
  1
#3
  7
Vcadd_HandPrnt
 72
     1
 11
-121.960189
 21
-199.50635
 31
0.0
100
AcDbText
  0
TEXT
  5
1E2
100
AcDbEntity
  8
hidden positions
370
     0
390
0
  6
Continuous
 62
   174
100
AcDbText
 10
-123.765689
 20
-202.50635
 30
0.0
 40
2.5
  1
SL
  7
Vcadd_HandPrnt
 72
     1
 11
-121.960189
 21
-202.50635
 31
0.0
100
AcDbText
  0
TEXT
  5
1E3
100
AcDbEntity
  8
hidden positions
370
     0
390
0
  6
Continuous
 62
   174
100
AcDbText
 10
-125.207023
 20
-205.50635
 30
0.0
 40
2.5
  1
Tab
  7
Vcadd_HandPrnt
 72
     1
 11
-121.960189
 21
-205.50635
 31
0.0
100
AcDbText
  0
INSERT
  5
1E4
100
AcDbEntity
  8
0
370
     0
390
0
  6
DOT
 62
     7
100
AcDbBlockReference
  2
hanging position
 10
-597.841529
 20
-34.546853
 30
0.0
 41
-1.0
  0
TEXT
  5
1E5
100
AcDbEntity
  8
0
370
     0
390
0
  6
Continuous
 62
   174
100
AcDbText
 10
-600.179863
 20
-33.098433
 30
0.0
 40
2.5
  1
#4
  7
Vcadd_HandPrnt
 72
     1
 11
-597.841529
 21
-33.098433
 31
0.0
100
AcDbText
  0
TEXT
  5
1E6
100
AcDbEntity
  8
0
370
     0
390
0
  6
Continuous
 62
   174
100
AcDbText
 10
-604.325613
 20
-36.098433
 30
0.0
 40
2.5
  1
Electric
  7
Vcadd_HandPrnt
 72
     1
 11
-597.841529
 21
-36.098433
 31
0.0
100
AcDbText
  0
INSERT
  5
1E7
100
AcDbEntity
  8
0
370
     0
390
0
  6
DOT
 62
     7
100
AcDbBlockReference
  2
hanging position
 10
-597.841529
 20
-127.659144
 30
0.0
 41
-1.0
  0
TEXT
  5
1E8
100
AcDbEntity
  8
0
370
     0
390
0
  6
Continuous
 62
   174
100
AcDbText
 10
-600.062946
 20
-126.210724
 30
0.0
 40
2.5
  1
#2
  7
Vcadd_HandPrnt
 72
     1
 11
-597.841529
 21
-126.210724
 31
0.0
100
AcDbText
  0
TEXT
  5
1E9
100
AcDbEntity
  8
0
370
     0
390
0
  6
Continuous
 62
   174
100
AcDbText
 10
-604.325613
 20
-129.210724
 30
0.0
 40
2.5
  1
Electric
  7
Vcadd_HandPrnt
 72
     1
 11
-597.841529
 21
-129.210724
 31
0.0
100
AcDbText
  0
INSERT
  5
1EA
100
AcDbEntity
  8
0
370
     0
390
0
  6
DOT
 62
     7
100
AcDbBlockReference
  2
hanging position
 10
-597.841529
 20
-79.659144
 30
0.0
 41
-1.0
  0
TEXT
  5
1EB
100
AcDbEntity
  8
0
370
     0
390
0
  6
Continuous
 62
   174
100
AcDbText
 10
-600.032279
 20
-78.210724
 30
0.0
 40
2.5
  1
#3
  7
Vcadd_HandPrnt
 72
     1
 11
-597.841529
 21
-78.210724
 31
0.0
100
AcDbText
  0
TEXT
  5
1EC
100
AcDbEntity
  8
0
370
     0
390
0
  6
Continuous
 62
   174
100
AcDbText
 10
-604.325613
 20
-81.210724
 30
0.0
 40
2.5
  1
Electric
  7
Vcadd_HandPrnt
 72
     1
 11
-597.841529
 21
-81.210724
 31
0.0
100
AcDbText
  0
INSERT
  5
1ED
100
AcDbEntity
  8
0
370
     0
390
0
  6
DOT
 62
     7
100
AcDbBlockReference
  2
hanging position
 10
-597.841529
 20
-274.630422
 30
0.0
 41
-1.0
  0
TEXT
  5
1EE
100
AcDbEntity
  8
0
370
     0
390
0
  6
Continuous
 62
   174
100
AcDbText
 10
-599.556946
 20
-273.182002
 30
0.0
 40
2.5
  1
#1
  7
Vcadd_HandPrnt
 72
     1
 11
-597.841529
 21
-273.182002
 31
0.0
100
AcDbText
  0
TEXT
  5
1EF
100
AcDbEntity
  8
0
370
     0
390
0
  6
Continuous
 62
   174
100
AcDbText
 10
-604.325613
 20
-276.182002
 30
0.0
 40
2.5
  1
Electric
  7
Vcadd_HandPrnt
 72
     1
 11
-597.841529
 21
-276.182002
 31
0.0
100
AcDbText
  0
INSERT
  5
1F0
100
AcDbEntity
  8
0
370
     0
390
0
  6
DOT
 62
     7
100
AcDbBlockReference
  2
hanging position
 10
-597.841529
 20
-421.630422
 30
0.0
 41
-1.0
  0
INSERT
  5
1F1
100
AcDbEntity
  8
hidden positions
370
     0
390
0
  6
DOT
 62
     7
100
AcDbBlockReference
  2
hanging position
 10
-229.76255
 20
-34.546853
 30
0.0
  0
TEXT
  5
1F2
100
AcDbEntity
  8
hidden positions
370
     0
390
0
  6
Continuous
 62
   174
100
AcDbText
 10
-232.100883
 20
-33.098433
 30
0.0
 40
2.5
  1
#4
  7
Vcadd_HandPrnt
 72
     1
 11
-229.76255
 21
-33.098433
 31
0.0
100
AcDbText
  0
TEXT
  5
1F3
100
AcDbEntity
  8
hidden positions
370
     0
390
0
  6
Continuous
 62
   174
100
AcDbText
 10
-236.246633
 20
-36.098433
 30
0.0
 40
2.5
  1
Electric
  7
Vcadd_HandPrnt
 72
     1
 11
-229.76255
 21
-36.098433
 31
0.0
100
AcDbText
  0
INSERT
  5
1F4
100
AcDbEntity
  8
hidden positions
370
     0
390
0
  6
DOT
 62
     7
100
AcDbBlockReference
  2
hanging position
 10
-229.76255
 20
-79.659144
 30
0.0
  0
TEXT
  5
1F5
100
AcDbEntity
  8
hidden positions
370
     0
390
0
  6
Continuous
 62
   174
100
AcDbText
 10
-231.9533
 20
-78.210724
 30
0.0
 40
2.5
  1
#3
  7
Vcadd_HandPrnt
 72
     1
 11
-229.76255
 21
-78.210724
 31
0.0
100
AcDbText
  0
TEXT
  5
1F6
100
AcDbEntity
  8
hidden positions
370
     0
390
0
  6
Continuous
 62
   174
100
AcDbText
 10
-236.246633
 20
-81.210724
 30
0.0
 40
2.5
  1
Electric
  7
Vcadd_HandPrnt
 72
     1
 11
-229.76255
 21
-81.210724
 31
0.0
100
AcDbText
  0
INSERT
  5
1F7
100
AcDbEntity
  8
hidden positions
370
     0
390
0
  6
DOT
 62
     7
100
AcDbBlockReference
  2
hanging position
 10
-229.76255
 20
-421.630422
 30
0.0
  0
INSERT
  5
1F8
100
AcDbEntity
  8
hidden positions
370
     0
390
0
  6
DOT
 62
     7
100
AcDbBlockReference
  2
hanging position
 10
-416.446251
 20
-34.546853
 30
0.0
  0
TEXT
  5
1F9
100
AcDbEntity
  8
hidden positions
370
     0
390
0
  6
Continuous
 62
   174
100
AcDbText
 10
-418.784584
 20
-33.098433
 30
0.0
 40
2.5
  1
#4
  7
Vcadd_HandPrnt
 72
     1
 11
-416.446251
 21
-33.098433
 31
0.0
100
AcDbText
  0
TEXT
  5
1FA
100
AcDbEntity
  8
hidden positions
370
     0
390
0
  6
Continuous
 62
   174
100
AcDbText
 10
-422.930334
 20
-36.098433
 30
0.0
 40
2.5
  1
Electric
  7
Vcadd_HandPrnt
 72
     1
 11
-416.446251
 21
-36.098433
 31
0.0
100
AcDbText
  0
INSERT
  5
1FB
100
AcDbEntity
  8
hidden positions
370
     0
390
0
  6
DOT
 62
     7
100
AcDbBlockReference
  2
hanging position
 10
-416.446251
 20
-79.659144
 30
0.0
  0
TEXT
  5
1FC
100
AcDbEntity
  8
hidden positions
370
     0
390
0
  6
Continuous
 62
   174
100
AcDbText
 10
-418.637001
 20
-78.210724
 30
0.0
 40
2.5
  1
#3
  7
Vcadd_HandPrnt
 72
     1
 11
-416.446251
 21
-78.210724
 31
0.0
100
AcDbText
  0
TEXT
  5
1FD
100
AcDbEntity
  8
hidden positions
370
     0
390
0
  6
Continuous
 62
   174
100
AcDbText
 10
-422.930334
 20
-81.210724
 30
0.0
 40
2.5
  1
Electric
  7
Vcadd_HandPrnt
 72
     1
 11
-416.446251
 21
-81.210724
 31
0.0
100
AcDbText
  0
INSERT
  5
1FE
100
AcDbEntity
  8
hidden positions
370
     0
390
0
  6
DOT
 62
     7
100
AcDbBlockReference
  2
hanging position
 10
-416.446251
 20
-274.630422
 30
0.0
  0
TEXT
  5
1FF
100
AcDbEntity
  8
hidden positions
370
     0
390
0
  6
Continuous
 62
   174
100
AcDbText
 10
-418.161667
 20
-273.182002
 30
0.0
 40
2.5
  1
#1
  7
Vcadd_HandPrnt
 72
     1
 11
-416.446251
 21
-273.182002
 31
0.0
100
AcDbText
  0
TEXT
  5
200
100
AcDbEntity
  8
hidden positions
370
     0
390
0
  6
Continuous
 62
   174
100
AcDbText
 10
-422.930334
 20
-276.182002
 30
0.0
 40
2.5
  1
Electric
  7
Vcadd_HandPrnt
 72
     1
 11
-416.446251
 21
-276.182002
 31
0.0
100
AcDbText
  0
INSERT
  5
201
100
AcDbEntity
  8
hidden positions
370
     0
390
0
  6
DOT
 62
     7
100
AcDbBlockReference
  2
hanging position
 10
-416.446251
 20
-421.630422
 30
0.0
  0
POLYLINE
  5
202
100
AcDbEntity
  8
hidden positions
370
     0
390
0
  6
DOT
 62
     7
100
AcDb2dPolyline
 66
     1
 10
0.0
 20
0.0
 30
0.0
 70
   128
  0
VERTEX
  5
203
100
AcDbEntity
  8
hidden positions
370
     0
390
0
  6
DOT
 62
     7
100
AcDbVertex
100
AcDb2dVertex
 10
-566.960189
 20
-273.630422
 30
0.0
  0
VERTEX
  5
204
100
AcDbEntity
  8
hidden positions
370
     0
390
0
  6
DOT
 62
     7
100
AcDbVertex
100
AcDb2dVertex
 10
-320.460189
 20
-273.630422
 30
0.0
  0
VERTEX
  5
205
100
AcDbEntity
  8
hidden positions
370
     0
390
0
  6
DOT
 62
     7
100
AcDbVertex
100
AcDb2dVertex
 10
-73.960189
 20
-273.630422
 30
0.0
  0
SEQEND
  5
206
100
AcDbEntity
  8
hidden positions
370
     0
390
0
  6
DOT
 62
     7
  0
ARC
  5
207
100
AcDbEntity
  8
Border
370
    30
390
0
  6
Continuous
 62
    14
100
AcDbCircle
 10
266.433847
 20
1.7893
 30
0.0
 40
7.5
100
AcDbArc
 50
0.0
 51
90.0
  0
ARC
  5
208
100
AcDbEntity
  8
Border
370
     0
390
0
  6
Continuous
 62
   174
100
AcDbCircle
 10
263.433847
 20
7.7893
 30
0.0
 40
4.5
100
AcDbArc
 50
360.0
 51
450.0
  0
ARC
  5
209
100
AcDbEntity
  8
Border
370
    30
390
0
  6
Continuous
 62
    14
100
AcDbCircle
 10
263.433847
 20
7.7893
 30
0.0
 40
6.0
100
AcDbArc
 50
360.0
 51
450.0
  0
HATCH
  5
20A
100
AcDbEntity
  8
Title Block
370
     0
390
0
  6
Continuous
 62
   214
100
AcDbHatch
 10
0.0
 20
0.0
 30
0.0
210
0.0
220
0.0
230
1.0
  2
DOTS
 70
     0
 71
     0
 91
        2
 92
        1
 93
        1
 72
     3
 10
226.16526028823375
 20
-645.80125189148112
 11
-21.424538164921273
 21
0.0
 40
0.42548
 50
360.0
 51
360.0
 73
     1
 97
        0
 92
        1
 93
        1
 72
     3
 10
223.91526028823375
 20
-645.80125189148112
 11
-21.424538164921273
 21
0.0
 40
0.42548
 50
360.0
 51
360.0
 73
     1
 97
        0
 75
     0
 76
     1
 52
0.0
 41
12.0
 77
     0
 78
     1
 53
0.0
 43
0.0
 44
0.0
 45
0.3744
 46
0.75
 79
     2
 49
0.0
 49
-0.75
 98
        1
 10
0.0
 20
0.0
  0
ARC
  5
20B
100
AcDbEntity
  8
Border
370
     0
390
0
  6
Continuous
 62
   174
100
AcDbCircle
 10
263.433847
 20
-680.680422
 30
0.0
 40
4.5
100
AcDbArc
 50
270.0
 51
360.0
  0
ARC
  5
20C
100
AcDbEntity
  8
Border
370
    30
390
0
  6
Continuous
 62
    14
100
AcDbCircle
 10
263.433847
 20
-680.680422
 30
0.0
 40
6.0
100
AcDbArc
 50
270.0
 51
360.0
  0
ARC
  5
20D
100
AcDbEntity
  8
Border
370
     0
390
0
  6
Continuous
 62
   174
100
AcDbCircle
 10
266.433847
 20
-674.680422
 30
0.0
 40
6.0
100
AcDbArc
 50
270.0
 51
360.0
  0
ARC
  5
20E
100
AcDbEntity
  8
Border
370
    30
390
0
  6
Continuous
 62
    14
100
AcDbCircle
 10
266.433847
 20
-674.680422
 30
0.0
 40
7.5
100
AcDbArc
 50
270.0
 51
360.0
  0
LINE
  5
20F
100
AcDbEntity
  8
Border
370
    30
390
0
  6
Continuous
 62
    14
100
AcDbLine
 10
273.933847
 20
1.7893
 30
0.0
 11
273.933847
 21
-674.680422
 31
0.0
  0
LINE
  5
210
100
AcDbEntity
  8
Border
370
     0
390
0
  6
Continuous
 62
   174
100
AcDbLine
 10
272.433847
 20
1.7893
 30
0.0
 11
272.433847
 21
-674.680422
 31
0.0
  0
LINE
  5
211
100
AcDbEntity
  8
Border
370
    30
390
0
  6
Continuous
 62
    14
100
AcDbLine
 10
269.433847
 20
7.7893
 30
0.0
 11
269.433847
 21
-680.680422
 31
0.0
  0
LINE
  5
212
100
AcDbEntity
  8
Border
370
     0
390
0
  6
Continuous
 62
   174
100
AcDbLine
 10
267.933847
 20
7.7893
 30
0.0
 11
267.933847
 21
-680.680422
 31
0.0
  0
ARC
  5
213
100
AcDbEntity
  8
Title Block
370
     0
390
0
  6
Continuous
 62
   174
100
AcDbCircle
 10
254.058847
 20
-670.169704
 30
0.0
 40
3.375
100
AcDbArc
 50
270.0
 51
360.0
  0
ARC
  5
214
100
AcDbEntity
  8
Title Block
370
     0
390
0
  6
Continuous
 62
   174
100
AcDbCircle
 10
256.308847
 20
-665.669704
 30
0.0
 40
4.5
100
AcDbArc
 50
270.0
 51
360.0
  0
ARC
  5
215
100
AcDbEntity
  8
Title Block
370
    30
390
0
  6
Continuous
 62
    14
100
AcDbCircle
 10
254.058847
 20
-670.169704
 30
0.0
 40
4.5
100
AcDbArc
 50
270.0
 51
360.0
  0
ARC
  5
216
100
AcDbEntity
  8
Title Block
370
    30
390
0
  6
Continuous
 62
    14
100
AcDbCircle
 10
256.308847
 20
-665.669704
 30
0.0
 40
5.625
100
AcDbArc
 50
270.0
 51
360.0
  0
ELLIPSE
  5
217
100
AcDbEntity
  8
Title Block
370
     0
390
0
  6
Continuous
 62
     1
100
AcDbEllipse
 10
226.16526
 20
-645.801252
 30
0.0
 11
-21.424538164921273
 21
0.0
 31
0.0
210
0.0
220
0.0
230
1.0
 40
0.42548
 41
0.0
 42
6.2831853071795862
  0
ELLIPSE
  5
218
100
AcDbEntity
  8
Title Block
370
     0
390
0
  6
Continuous
 62
     1
100
AcDbEllipse
 10
223.91526
 20
-645.801252
 30
0.0
 11
-21.424538164921273
 21
0.0
 31
0.0
210
0.0
220
0.0
230
1.0
 40
0.42548
 41
0.0
 42
6.2831853071795862
  0
LINE
  5
219
100
AcDbEntity
  8
Title Block
370
    30
390
0
  6
Continuous
 62
    14
100
AcDbLine
 10
261.933847
 20
-665.669704
 30
0.0
 11
261.933847
 21
-596.950217
 31
0.0
  0
LINE
  5
21A
100
AcDbEntity
  8
Title Block
370
     0
390
0
  6
Continuous
 62
   174
100
AcDbLine
 10
260.808847
 20
-665.669704
 30
0.0
 11
260.808847
 21
-596.950217
 31
0.0
  0
LINE
  5
21B
100
AcDbEntity
  8
Title Block
370
    30
390
0
  6
Continuous
 62
    14
100
AcDbLine
 10
258.558847
 20
-670.169704
 30
0.0
 11
258.558847
 21
-592.450217
 31
0.0
  0
LINE
  5
21C
100
AcDbEntity
  8
Title Block
370
     0
390
0
  6
Continuous
 62
   174
100
AcDbLine
 10
257.433847
 20
-670.169704
 30
0.0
 11
257.433847
 21
-592.450217
 31
0.0
  0
ARC
  5
21D
100
AcDbEntity
  8
Title Block
370
     0
390
0
  6
Continuous
 62
   174
100
AcDbCircle
 10
254.058847
 20
-565.01694
 30
0.0
 40
3.375
100
AcDbArc
 50
0.0
 51
90.0
  0
ARC
  5
21E
100
AcDbEntity
  8
Title Block
370
     0
390
0
  6
Continuous
 62
   174
100
AcDbCircle
 10
256.308847
 20
-569.51694
 30
0.0
 40
4.5
100
AcDbArc
 50
360.0
 51
450.0
  0
ARC
  5
21F
100
AcDbEntity
  8
Title Block
370
    30
390
0
  6
Continuous
 62
    14
100
AcDbCircle
 10
254.058847
 20
-565.01694
 30
0.0
 40
4.5
100
AcDbArc
 50
0.0
 51
90.0
  0
ARC
  5
220
100
AcDbEntity
  8
Title Block
370
    30
390
0
  6
Continuous
 62
    14
100
AcDbCircle
 10
256.308847
 20
-569.51694
 30
0.0
 40
5.625
100
AcDbArc
 50
360.0
 51
450.0
  0
LINE
  5
221
100
AcDbEntity
  8
Title Block
370
    30
390
0
  6
Continuous
 62
    14
100
AcDbLine
 10
258.558847
 20
-592.450217
 30
0.0
 11
258.558847
 21
-565.01694
 31
0.0
  0
LINE
  5
222
100
AcDbEntity
  8
Title Block
370
    30
390
0
  6
Continuous
 62
    14
100
AcDbLine
 10
261.933847
 20
-596.950217
 30
0.0
 11
261.933847
 21
-569.51694
 31
0.0
  0
LINE
  5
223
100
AcDbEntity
  8
Title Block
370
     0
390
0
  6
Continuous
 62
   174
100
AcDbLine
 10
257.433847
 20
-592.450217
 30
0.0
 11
257.433847
 21
-565.01694
 31
0.0
  0
LINE
  5
224
100
AcDbEntity
  8
Title Block
370
     0
390
0
  6
Continuous
 62
   174
100
AcDbLine
 10
260.808847
 20
-596.950217
 30
0.0
 11
260.808847
 21
-569.51694
 31
0.0
  0
TEXT
  5
225
100
AcDbEntity
  8
Title Block
370
     0
390
0
  6
Continuous
 62
   174
100
AcDbText
 10
219.157709
 20
-648.417842
 30
0.0
 40
6.0
  1
" = 1'
  7
Vcadd_HandPrnt
100
AcDbText
  0
LINE
  5
226
100
AcDbEntity
  8
Border
370
     0
390
0
  6
DOT
 62
     7
100
AcDbLine
 10
-692.131733
 20
1.7893
 30
0.0
 11
-692.131733
 21
-674.680422
 31
0.0
  0
ARC
  5
227
100
AcDbEntity
  8
Title Block
370
     0
390
0
  6
Continuous
 62
   174
100
AcDbCircle
 10
143.221674
 20
-670.169704
 30
0.0
 40
3.375
100
AcDbArc
 50
180.0
 51
270.0
  0
ARC
  5
228
100
AcDbEntity
  8
Title Block
370
    30
390
0
  6
Continuous
 62
    14
100
AcDbCircle
 10
143.221674
 20
-670.169704
 30
0.0
 40
4.5
100
AcDbArc
 50
180.0
 51
270.0
  0
ARC
  5
229
100
AcDbEntity
  8
Title Block
370
     0
390
0
  6
Continuous
 62
   174
100
AcDbCircle
 10
140.971674
 20
-665.669704
 30
0.0
 40
4.5
100
AcDbArc
 50
180.0
 51
270.0
  0
ARC
  5
22A
100
AcDbEntity
  8
Title Block
370
    30
390
0
  6
Continuous
 62
    14
100
AcDbCircle
 10
140.971674
 20
-665.669704
 30
0.0
 40
5.625
100
AcDbArc
 50
180.0
 51
270.0
  0
LINE
  5
22B
100
AcDbEntity
  8
Title Block
370
    30
390
0
  6
Continuous
 62
    14
100
AcDbLine
 10
135.346674
 20
-665.669704
 30
0.0
 11
135.346674
 21
-596.950217
 31
0.0
  0
LINE
  5
22C
100
AcDbEntity
  8
Title Block
370
     0
390
0
  6
Continuous
 62
   174
100
AcDbLine
 10
136.471674
 20
-665.669704
 30
0.0
 11
136.471674
 21
-596.950217
 31
0.0
  0
LINE
  5
22D
100
AcDbEntity
  8
Title Block
370
     0
390
0
  6
Continuous
 62
   174
100
AcDbLine
 10
139.846674
 20
-670.169704
 30
0.0
 11
139.846674
 21
-592.450217
 31
0.0
  0
LINE
  5
22E
100
AcDbEntity
  8
Title Block
370
    30
390
0
  6
Continuous
 62
    14
100
AcDbLine
 10
138.721674
 20
-670.169704
 30
0.0
 11
138.721674
 21
-592.450217
 31
0.0
  0
ARC
  5
22F
100
AcDbEntity
  8
Title Block
370
     0
390
0
  6
Continuous
 62
   174
100
AcDbCircle
 10
143.221674
 20
-565.01694
 30
0.0
 40
3.375
100
AcDbArc
 50
90.0
 51
180.0
  0
ARC
  5
230
100
AcDbEntity
  8
Title Block
370
     0
390
0
  6
Continuous
 62
   174
100
AcDbCircle
 10
140.971674
 20
-569.51694
 30
0.0
 40
4.5
100
AcDbArc
 50
90.0
 51
180.0
  0
ARC
  5
231
100
AcDbEntity
  8
Title Block
370
    30
390
0
  6
Continuous
 62
    14
100
AcDbCircle
 10
143.221674
 20
-565.01694
 30
0.0
 40
4.5
100
AcDbArc
 50
90.0
 51
180.0
  0
ARC
  5
232
100
AcDbEntity
  8
Title Block
370
    30
390
0
  6
Continuous
 62
    14
100
AcDbCircle
 10
140.971674
 20
-569.51694
 30
0.0
 40
5.625
100
AcDbArc
 50
90.0
 51
180.0
  0
LINE
  5
233
100
AcDbEntity
  8
Title Block
370
    30
390
0
  6
Continuous
 62
    14
100
AcDbLine
 10
135.346674
 20
-596.950217
 30
0.0
 11
135.346674
 21
-569.51694
 31
0.0
  0
LINE
  5
234
100
AcDbEntity
  8
Title Block
370
    30
390
0
  6
Continuous
 62
    14
100
AcDbLine
 10
138.721674
 20
-592.450217
 30
0.0
 11
138.721674
 21
-565.01694
 31
0.0
  0
LINE
  5
235
100
AcDbEntity
  8
Title Block
370
     0
390
0
  6
Continuous
 62
   174
100
AcDbLine
 10
139.846674
 20
-592.450217
 30
0.0
 11
139.846674
 21
-565.01694
 31
0.0
  0
LINE
  5
236
100
AcDbEntity
  8
Title Block
370
     0
390
0
  6
Continuous
 62
   174
100
AcDbLine
 10
136.471674
 20
-596.950217
 30
0.0
 11
136.471674
 21
-569.51694
 31
0.0
  0
LINE
  5
237
100
AcDbEntity
  8
Title Block
370
    30
390
0
  6
Continuous
 62
    14
100
AcDbLine
 10
254.058847
 20
-560.51694
 30
0.0
 11
143.221674
 21
-560.51694
 31
0.0
  0
LINE
  5
238
100
AcDbEntity
  8
Title Block
370
     0
390
0
  6
Continuous
 62
   174
100
AcDbLine
 10
254.058847
 20
-561.64194
 30
0.0
 11
143.221674
 21
-561.64194
 31
0.0
  0
LINE
  5
239
100
AcDbEntity
  8
Title Block
370
    30
390
0
  6
Continuous
 62
    14
100
AcDbLine
 10
256.308847
 20
-563.89194
 30
0.0
 11
140.971674
 21
-563.89194
 31
0.0
  0
LINE
  5
23A
100
AcDbEntity
  8
Title Block
370
     0
390
0
  6
Continuous
 62
     7
100
AcDbLine
 10
256.308847
 20
-565.01694
 30
0.0
 11
140.971674
 21
-565.01694
 31
0.0
  0
TEXT
  5
23B
100
AcDbEntity
  8
Title Block
370
     0
390
0
  6
Continuous
 62
   174
100
AcDbText
 10
144.827392
 20
-623.680001
 30
0.0
 40
3.0
  1
Jeffrey E. Salzberg,
  7
Vcadd_HandPrnt
100
AcDbText
  0
TEXT
  5
23C
100
AcDbEntity
  8
Title Block
370
     0
390
0
  6
Continuous
 62
   174
100
AcDbText
 10
144.827392
 20
-627.280001
 30
0.0
 40
3.0
  1
Lighting Designer
  7
Vcadd_HandPrnt
100
AcDbText
  0
TEXT
  5
23D
100
AcDbEntity
  8
Title Block
370
     0
390
0
  6
Continuous
 62
   174
100
AcDbText
 10
144.827392
 20
-630.880001
 30
0.0
 40
3.0
  1
February, 2005
  7
Vcadd_HandPrnt
100
AcDbText
  0
TEXT
  5
23E
100
AcDbEntity
  8
Title Block
370
     0
390
0
  6
Continuous
 62
   174
100
AcDbText
 10
144.827392
 20
-634.480001
 30
0.0
 40
3.0
  1
American Theatre of Actors
  7
Vcadd_HandPrnt
100
AcDbText
  0
TEXT
  5
23F
100
AcDbEntity
  8
Title Block
370
     0
390
0
  6
Continuous
 62
   174
100
AcDbText
 10
144.827392
 20
-638.080001
 30
0.0
 40
3.0
  1
Chernuchin Theatre
  7
Vcadd_HandPrnt
100
AcDbText
  0
TEXT
  5
240
100
AcDbEntity
  8
Title Block
370
     0
390
0
  6
Continuous
 62
   174
100
AcDbText
 10
144.814675
 20
-615.849115
 30
0.0
 40
3.5
  1
Overhead Electrics
  7
Vcadd_HandPrnt
100
AcDbText
  0
LINE
  5
241
100
AcDbEntity
  8
Title Block
370
    30
390
0
  6
Continuous
 62
    14
100
AcDbLine
 10
258.558847
 20
-608.157875
 30
0.0
 11
138.721674
 21
-608.157875
 31
0.0
  0
LINE
  5
242
100
AcDbEntity
  8
Title Block
370
     0
390
0
  6
Continuous
 62
     7
100
AcDbLine
 10
257.433847
 20
-609.282875
 30
0.0
 11
139.846674
 21
-609.282875
 31
0.0
  0
LINE
  5
243
100
AcDbEntity
  8
Title Block
370
    30
390
0
  6
Continuous
 62
    14
100
AcDbLine
 10
258.558847
 20
-618.236005
 30
0.0
 11
138.721674
 21
-618.236005
 31
0.0
  0
LINE
  5
244
100
AcDbEntity
  8
Title Block
370
     0
390
0
  6
Continuous
 62
     7
100
AcDbLine
 10
257.433847
 20
-619.361005
 30
0.0
 11
139.846674
 21
-619.361005
 31
0.0
  0
LINE
  5
245
100
AcDbEntity
  8
Title Block
370
    30
390
0
  6
Continuous
 62
    14
100
AcDbLine
 10
258.558847
 20
-656.821056
 30
0.0
 11
138.721674
 21
-656.821056
 31
0.0
  0
LINE
  5
246
100
AcDbEntity
  8
Title Block
370
     0
390
0
  6
Continuous
 62
     7
100
AcDbLine
 10
257.433847
 20
-657.946056
 30
0.0
 11
139.846674
 21
-657.946056
 31
0.0
  0
LINE
  5
247
100
AcDbEntity
  8
Title Block
370
     0
390
0
  6
Continuous
 62
   174
100
AcDbLine
 10
256.308847
 20
-670.169704
 30
0.0
 11
140.971674
 21
-670.169704
 31
0.0
  0
LINE
  5
248
100
AcDbEntity
  8
Title Block
370
    30
390
0
  6
Continuous
 62
    14
100
AcDbLine
 10
256.308847
 20
-671.294704
 30
0.0
 11
140.971674
 21
-671.294704
 31
0.0
  0
LINE
  5
249
100
AcDbEntity
  8
Title Block
370
     0
390
0
  6
Continuous
 62
   174
100
AcDbLine
 10
254.058847
 20
-673.544704
 30
0.0
 11
143.221674
 21
-673.544704
 31
0.0
  0
LINE
  5
24A
100
AcDbEntity
  8
Title Block
370
    30
390
0
  6
Continuous
 62
    14
100
AcDbLine
 10
254.058847
 20
-674.669704
 30
0.0
 11
143.221674
 21
-674.669704
 31
0.0
  0
ELLIPSE
  5
24B
100
AcDbEntity
  8
Title Block
370
     0
390
0
  6
Continuous
 62
   174
100
AcDbEllipse
 10
151.839414
 20
-664.623093
 30
0.0
 11
-9.883765364355412
 21
0.0
 31
0.0
210
0.0
220
0.0
230
1.0
 40
0.487385
 41
0.0
 42
6.2831853071795862
  0
ELLIPSE
  5
24C
100
AcDbEntity
  8
Title Block
370
     0
390
0
  6
Continuous
 62
   174
100
AcDbEllipse
 10
152.964414
 20
-664.623093
 30
0.0
 11
-9.883765364355412
 21
0.0
 31
0.0
210
0.0
220
0.0
230
1.0
 40
0.487385
 41
0.0
 42
6.2831853071795862
  0
TEXT
  5
24D
100
AcDbEntity
  8
Title Block
370
     0
390
0
  6
Continuous
 62
   174
100
AcDbText
 10
218.606257
 20
-663.897722
 30
0.0
 40
3.0
  1
(201) 379-3138
  7
Vcadd_HandPrnt
 72
     2
 11
252.906042
 21
-663.897722
 31
0.0
100
AcDbText
  0
TEXT
  5
24E
100
AcDbEntity
  8
Title Block
370
     0
390
0
  6
Continuous
 62
   174
100
AcDbText
 10
201.155325
 20
-667.497722
 30
0.0
 40
3.0
  1
jeff@jeffsalzberg.com
  7
Vcadd_HandPrnt
 72
     2
 11
252.906042
 21
-667.497722
 31
0.0
100
AcDbText
  0
TEXT
  5
24F
100
AcDbEntity
  8
Title Block
370
     0
390
0
  6
Continuous
 62
   174
100
AcDbText
 10
145.380957
 20
-664.069346
 30
0.0
 40
2.25
  1
Page #1
  7
Vcadd_HandPrnt
 72
     1
 11
152.224006
 21
-664.069346
 31
0.0
100
AcDbText
  0
TEXT
  5
250
100
AcDbEntity
  8
Title Block
370
     0
390
0
  6
Continuous
 62
   174
100
AcDbText
 10
148.608905
 20
-666.769346
 30
0.0
 40
2.25
  1
of 2
  7
Vcadd_HandPrnt
 72
     1
 11
152.224006
 21
-666.769346
 31
0.0
100
AcDbText
  0
LINE
  5
251
100
AcDbEntity
  8
Border
370
    30
390
0
  6
Continuous
 62
    14
100
AcDbLine
 10
-645.631733
 20
13.7893
 30
0.0
 11
263.433847
 21
13.7893
 31
0.0
  0
LINE
  5
252
100
AcDbEntity
  8
Border
370
     0
390
0
  6
Continuous
 62
   174
100
AcDbLine
 10
-645.631733
 20
12.2893
 30
0.0
 11
263.433847
 21
12.2893
 31
0.0
  0
LINE
  5
253
100
AcDbEntity
  8
Border
370
    30
390
0
  6
Continuous
 62
    14
100
AcDbLine
 10
-648.631733
 20
9.2893
 30
0.0
 11
266.433847
 21
9.2893
 31
0.0
  0
LINE
  5
254
100
AcDbEntity
  8
Border
370
     0
390
0
  6
Continuous
 62
   174
100
AcDbLine
 10
-648.631733
 20
7.7893
 30
0.0
 11
266.433847
 21
7.7893
 31
0.0
  0
LINE
  5
255
100
AcDbEntity
  8
Border
370
     0
390
0
  6
Continuous
 62
   174
100
AcDbLine
 10
-650.131733
 20
-680.680422
 30
0.0
 11
266.433847
 21
-680.680422
 31
0.0
  0
LINE
  5
256
100
AcDbEntity
  8
Border
370
    30
390
0
  6
Continuous
 62
    14
100
AcDbLine
 10
-648.631733
 20
-682.180422
 30
0.0
 11
266.433847
 21
-682.180422
 31
0.0
  0
LINE
  5
257
100
AcDbEntity
  8
Border
370
     0
390
0
  6
Continuous
 62
   174
100
AcDbLine
 10
-645.631733
 20
-685.180422
 30
0.0
 11
263.433847
 21
-685.180422
 31
0.0
  0
LINE
  5
258
100
AcDbEntity
  8
Border
370
    30
390
0
  6
Continuous
 62
    14
100
AcDbLine
 10
-645.631733
 20
-686.680422
 30
0.0
 11
263.433847
 21
-686.680422
 31
0.0
  0
LINE
  5
259
100
AcDbEntity
  8
hidden positions
370
     0
390
0
  6
Continuous
 62
   174
100
AcDbLine
 10
-419.672974
 20
-560.630422
 30
0.0
 11
-420.672974
 21
-560.630422
 31
0.0
  0
INSERT
  5
25A
100
AcDbEntity
  8
hidden positions
370
     0
390
0
  6
DOT
 62
     7
100
AcDbBlockReference
  2
hanging position
 10
-229.76255
 20
-559.630422
 30
0.0
  0
TEXT
  5
25B
100
AcDbEntity
  8
hidden positions
370
     0
390
0
  6
Continuous
 62
   174
100
AcDbText
 10
-232.39145
 20
-558.182002
 30
0.0
 40
3.0
  1
#3
  7
Vcadd_HandPrnt
 72
     1
 11
-229.76255
 21
-558.182002
 31
0.0
100
AcDbText
  0
TEXT
  5
25C
100
AcDbEntity
  8
hidden positions
370
     0
390
0
  6
Continuous
 62
   174
100
AcDbText
 10
-234.34645
 20
-561.782002
 30
0.0
 40
3.0
  1
FOH
  7
Vcadd_HandPrnt
 72
     1
 11
-229.76255
 21
-561.782002
 31
0.0
100
AcDbText
  0
INSERT
  5
25D
100
AcDbEntity
  8
hidden positions
370
     0
390
0
  6
DOT
 62
     7
100
AcDbBlockReference
  2
hanging position
 10
-416.446251
 20
-559.630422
 30
0.0
  0
TEXT
  5
25E
100
AcDbEntity
  8
hidden positions
370
     0
390
0
  6
Continuous
 62
   174
100
AcDbText
 10
-419.075151
 20
-558.182002
 30
0.0
 40
3.0
  1
#3
  7
Vcadd_HandPrnt
 72
     1
 11
-416.446251
 21
-558.182002
 31
0.0
100
AcDbText
  0
TEXT
  5
25F
100
AcDbEntity
  8
hidden positions
370
     0
390
0
  6
Continuous
 62
   174
100
AcDbText
 10
-421.030151
 20
-561.782002
 30
0.0
 40
3.0
  1
FOH
  7
Vcadd_HandPrnt
 72
     1
 11
-416.446251
 21
-561.782002
 31
0.0
100
AcDbText
  0
LINE
  5
260
100
AcDbEntity
  8
0
370
     0
390
0
  6
DOT
 62
     7
100
AcDbLine
 10
-220.460189
 20
-67.630422
 30
0.0
 11
-220.460189
 21
-30.630422
 31
0.0
  0
LINE
  5
261
100
AcDbEntity
  8
0
370
     0
390
0
  6
DOT
 62
     7
100
AcDbLine
 10
-420.460189
 20
-67.630422
 30
0.0
 11
-420.460189
 21
-30.630422
 31
0.0
  0
LINE
  5
262
100
AcDbEntity
  8
0
370
     0
390
0
  6
DOT
 62
     7
100
AcDbLine
 10
-518.960189
 20
-138.630422
 30
0.0
 11
-452.558854
 21
-78.430761
 31
0.0
  0
LINE
  5
263
100
AcDbEntity
  8
0
370
     0
390
0
  6
DOT
 62
     7
100
AcDbLine
 10
-430.460189
 20
-30.630422
 30
0.0
 11
-430.460189
 21
-53.978745
 31
0.0
  0
LINE
  5
264
100
AcDbEntity
  8
0
370
     0
390
0
  6
DOT
 62
     7
100
AcDbLine
 10
-413.687845
 20
-67.637323
 30
0.0
 11
-426.718247
 21
-67.637323
 31
0.0
  0
LINE
  5
265
100
AcDbEntity
  8
0
370
     0
390
0
  6
DOT
 62
     7
100
AcDbLine
 10
-225.697761
 20
-67.637323
 30
0.0
 11
-215.315883
 21
-67.637323
 31
0.0
  0
LINE
  5
266
100
AcDbEntity
  8
0
370
     0
390
0
  6
DOT
 62
     7
100
AcDbLine
 10
-210.460189
 20
-30.630422
 30
0.0
 11
-210.460189
 21
-55.502495
 31
0.0
  0
LINE
  5
267
100
AcDbEntity
  8
0
370
     0
390
0
  6
DOT
 62
     7
100
AcDbLine
 10
-121.960189
 20
-138.630422
 30
0.0
 11
-185.389367
 21
-81.208167
 31
0.0
  0
LINE
  5
268
100
AcDbEntity
  8
0
370
     0
390
0
  6
DOT
 62
     7
100
AcDbLine
 10
-410.460189
 20
-30.630422
 30
0.0
 11
-410.460189
 21
-50.970465
 31
0.0
  0
LINE
  5
269
100
AcDbEntity
  8
0
370
     0
390
0
  6
DOT
 62
     7
100
AcDbLine
 10
-230.460189
 20
-30.630422
 30
0.0
 11
-230.460189
 21
-50.680432
 31
0.0
  0
LINE
  5
26A
100
AcDbEntity
  8
0
370
     0
390
0
  6
DOT
 62
     7
100
AcDbLine
 10
-405.156539
 20
-67.637323
 30
0.0
 11
-366.954189
 21
-67.637323
 31
0.0
  0
LINE
  5
26B
100
AcDbEntity
  8
0
370
     0
390
0
  6
DOT
 62
     7
100
AcDbLine
 10
-273.393456
 20
-67.637323
 30
0.0
 11
-234.050801
 21
-67.637323
 31
0.0
  0
LINE
  5
26C
100
AcDbEntity
  8
0
370
     0
390
0
  6
DOT
 62
     7
100
AcDbLine
 10
-200.460189
 20
-30.630422
 30
0.0
 11
-200.460189
 21
-55.502495
 31
0.0
  0
LINE
  5
26D
100
AcDbEntity
  8
0
370
     0
390
0
  6
DOT
 62
     7
100
AcDbLine
 10
-440.460189
 20
-30.630422
 30
0.0
 11
-440.460189
 21
-53.978745
 31
0.0
  0
HATCH
  5
26E
100
AcDbEntity
  8
0
370
     0
390
0
  6
Continuous
 62
   174
100
AcDbHatch
 10
0.0
 20
0.0
 30
0.0
210
0.0
220
0.0
230
1.0
  2
BRICK_STONE
 70
     0
 71
     0
 91
        1
 92
        1
 93
       10
 72
     1
 10
-67.960189204620562
 20
-24.630421526928753
 11
-572.96018920462052
 21
-24.630421526928725
 72
     1
 10
-572.96018920462052
 20
-24.630421526928725
 11
-572.96018920462063
 21
-570.38711367309691
 72
     1
 10
-572.96018920462063
 20
-570.38711367309691
 11
-569.70693094163221
 21
-564.34613672241642
 72
     1
 10
-569.70693094163221
 20
-564.34613672241642
 11
-566.96018920462063
 21
-576.38711367309691
 72
     1
 10
-566.96018920462063
 20
-576.38711367309691
 11
-566.96018920462052
 21
-30.630421526928725
 72
     1
 10
-566.96018920462052
 20
-30.630421526928725
 11
-73.960189204620562
 21
-30.630421526928753
 72
     1
 10
-73.960189204620562
 20
-30.630421526928753
 11
-73.960189204620661
 21
-582.59126704844493
 72
     1
 10
-73.960189204620661
 20
-582.59126704844493
 11
-70.971855627014705
 21
-567.39566178772816
 72
     1
 10
-70.971855627014705
 20
-567.39566178772816
 11
-67.960189204620661
 21
-576.59126704844493
 72
     1
 10
-67.960189204620661
 20
-576.59126704844493
 11
-67.960189204620562
 21
-24.630421526928753
 97
        0
 75
     0
 76
     1
 52
90.0
 41
12.0
 77
     0
 78
     8
 53
90.0
 43
0.0
 44
0.0
 45
-3.96
 46
-0.0000000000004095
 79
     0
 53
180.0
 43
0.0
 44
10.8
 45
-3.95999999999938
 46
-6.0000000000004086
 79
     2
 49
3.96
 49
-3.96
 53
180.0
 43
0.0
 44
9.6
 45
-3.95999999999938
 46
-6.0000000000004086
 79
     2
 49
3.96
 49
-3.96
 53
90.0
 43
-0.66
 44
10.8
 45
-3.9600000000006204
 46
5.9999999999995905
 79
     2
 49
-10.8
 49
1.2
 53
90.0
 43
-1.32
 44
10.8
 45
-3.9600000000006204
 46
5.9999999999995905
 79
     2
 49
-10.8
 49
1.2
 53
90.0
 43
-1.98
 44
10.8
 45
-3.9600000000006204
 46
5.9999999999995905
 79
     2
 49
-10.8
 49
1.2
 53
90.0
 43
-2.64
 44
10.8
 45
-3.9600000000006204
 46
5.9999999999995905
 79
     2
 49
-10.8
 49
1.2
 53
90.0
 43
-3.3
 44
10.8
 45
-3.9600000000006204
 46
5.9999999999995905
 79
     2
 49
-10.8
 49
1.2
 98
        1
 10
0.0
 20
0.0
  0
TEXT
  5
26F
100
AcDbEntity
  8
0
370
     0
390
0
  6
Continuous
 62
   174
100
AcDbText
 10
-49.303371
 20
-191.685153
 30
0.0
 40
3.0
  1
Boom and column positions
  7
Vcadd_HandPrnt
100
AcDbText
  0
TEXT
  5
270
100
AcDbEntity
  8
0
370
     0
390
0
  6
Continuous
 62
   174
100
AcDbText
 10
-49.303371
 20
-195.285153
 30
0.0
 40
3.0
  1
not to scale
  7
Vcadd_HandPrnt
100
AcDbText
  0
INSERT
  5
271
100
AcDbEntity
  8
0
370
     0
390
0
  6
DOT
 62
     7
100
AcDbBlockReference
  2
hanging position
 10
-278.92247
 20
-598.221263
 30
0.0
  0
INSERT
  5
272
100
AcDbEntity
  8
0
370
     0
390
0
  6
DOT
 62
     7
100
AcDbBlockReference
  2
hanging position
 10
-43.078849
 20
-466.630422
 30
0.0
  0
POLYLINE
  5
273
100
AcDbEntity
  8
hidden positions
370
     0
390
0
  6
DOT
 62
     7
100
AcDb2dPolyline
 66
     1
 10
0.0
 20
0.0
 30
0.0
 70
   128
  0
VERTEX
  5
274
100
AcDbEntity
  8
hidden positions
370
     0
390
0
  6
DOT
 62
     7
100
AcDbVertex
100
AcDb2dVertex
 10
-566.960189
 20
-465.630422
 30
0.0
  0
VERTEX
  5
275
100
AcDbEntity
  8
hidden positions
370
     0
390
0
  6
DOT
 62
     7
100
AcDbVertex
100
AcDb2dVertex
 10
-320.460189
 20
-465.630422
 30
0.0
  0
VERTEX
  5
276
100
AcDbEntity
  8
hidden positions
370
     0
390
0
  6
DOT
 62
     7
100
AcDbVertex
100
AcDb2dVertex
 10
-73.960189
 20
-465.630422
 30
0.0
  0
SEQEND
  5
277
100
AcDbEntity
  8
hidden positions
370
     0
390
0
  6
DOT
 62
     7
  0
POLYLINE
  5
278
100
AcDbEntity
  8
hidden positions
370
     0
390
0
  6
DOT
 62
     7
100
AcDb2dPolyline
 66
     1
 10
0.0
 20
0.0
 30
0.0
 70
   128
  0
VERTEX
  5
279
100
AcDbEntity
  8
hidden positions
370
     0
390
0
  6
DOT
 62
     7
100
AcDbVertex
100
AcDb2dVertex
 10
-566.960189
 20
-466.630422
 30
0.0
  0
VERTEX
  5
27A
100
AcDbEntity
  8
hidden positions
370
     0
390
0
  6
DOT
 62
     7
100
AcDbVertex
100
AcDb2dVertex
 10
-320.460189
 20
-466.630422
 30
0.0
  0
VERTEX
  5
27B
100
AcDbEntity
  8
hidden positions
370
     0
390
0
  6
DOT
 62
     7
100
AcDbVertex
100
AcDb2dVertex
 10
-73.960189
 20
-466.630422
 30
0.0
  0
SEQEND
  5
27C
100
AcDbEntity
  8
hidden positions
370
     0
390
0
  6
DOT
 62
     7
  0
POLYLINE
  5
27D
100
AcDbEntity
  8
hidden positions
370
     0
390
0
  6
DOT
 62
     7
100
AcDb2dPolyline
 66
     1
 10
0.0
 20
0.0
 30
0.0
 70
   128
  0
VERTEX
  5
27E
100
AcDbEntity
  8
hidden positions
370
     0
390
0
  6
DOT
 62
     7
100
AcDbVertex
100
AcDb2dVertex
 10
-566.960189
 20
-467.630422
 30
0.0
  0
VERTEX
  5
27F
100
AcDbEntity
  8
hidden positions
370
     0
390
0
  6
DOT
 62
     7
100
AcDbVertex
100
AcDb2dVertex
 10
-320.460189
 20
-467.630422
 30
0.0
  0
VERTEX
  5
280
100
AcDbEntity
  8
hidden positions
370
     0
390
0
  6
DOT
 62
     7
100
AcDbVertex
100
AcDb2dVertex
 10
-73.960189
 20
-467.630422
 30
0.0
  0
SEQEND
  5
281
100
AcDbEntity
  8
hidden positions
370
     0
390
0
  6
DOT
 62
     7
  0
INSERT
  5
282
100
AcDbEntity
  8
0
370
     0
390
0
  6
DOT
 62
     7
100
AcDbBlockReference
  2
hanging position
 10
-597.841529
 20
-466.630422
 30
0.0
 41
-1.0
  0
INSERT
  5
283
100
AcDbEntity
  8
hidden positions
370
     0
390
0
  6
DOT
 62
     7
100
AcDbBlockReference
  2
hanging position
 10
-229.76255
 20
-466.630422
 30
0.0
  0
TEXT
  5
284
100
AcDbEntity
  8
0
370
     0
390
0
  6
Continuous
 62
   174
100
AcDbText
 10
-45.137349
 20
-420.182002
 30
0.0
 40
3.0
  1
#1
  7
Vcadd_HandPrnt
 72
     1
 11
-43.078849
 21
-420.182002
 31
0.0
100
AcDbText
  0
TEXT
  5
285
100
AcDbEntity
  8
0
370
     0
390
0
  6
Continuous
 62
   174
100
AcDbText
 10
-47.662749
 20
-423.782002
 30
0.0
 40
3.0
  1
FOH
  7
Vcadd_HandPrnt
 72
     1
 11
-43.078849
 21
-423.782002
 31
0.0
100
AcDbText
  0
TEXT
  5
286
100
AcDbEntity
  8
0
370
     0
390
0
  6
Continuous
 62
   174
100
AcDbText
 10
-45.744549
 20
-465.182002
 30
0.0
 40
3.0
  1
#2
  7
Vcadd_HandPrnt
 72
     1
 11
-43.078849
 21
-465.182002
 31
0.0
100
AcDbText
  0
TEXT
  5
287
100
AcDbEntity
  8
0
370
     0
390
0
  6
Continuous
 62
   174
100
AcDbText
 10
-47.662749
 20
-468.782002
 30
0.0
 40
3.0
  1
FOH
  7
Vcadd_HandPrnt
 72
     1
 11
-43.078849
 21
-468.782002
 31
0.0
100
AcDbText
  0
TEXT
  5
288
100
AcDbEntity
  8
hidden positions
370
     0
390
0
  6
Continuous
 62
   174
100
AcDbText
 10
-231.82105
 20
-420.182002
 30
0.0
 40
3.0
  1
#1
  7
Vcadd_HandPrnt
 72
     1
 11
-229.76255
 21
-420.182002
 31
0.0
100
AcDbText
  0
TEXT
  5
289
100
AcDbEntity
  8
hidden positions
370
     0
390
0
  6
Continuous
 62
   174
100
AcDbText
 10
-234.34645
 20
-423.782002
 30
0.0
 40
3.0
  1
FOH
  7
Vcadd_HandPrnt
 72
     1
 11
-229.76255
 21
-423.782002
 31
0.0
100
AcDbText
  0
TEXT
  5
28A
100
AcDbEntity
  8
hidden positions
370
     0
390
0
  6
Continuous
 62
   174
100
AcDbText
 10
-232.42825
 20
-465.182002
 30
0.0
 40
3.0
  1
#2
  7
Vcadd_HandPrnt
 72
     1
 11
-229.76255
 21
-465.182002
 31
0.0
100
AcDbText
  0
TEXT
  5
28B
100
AcDbEntity
  8
hidden positions
370
     0
390
0
  6
Continuous
 62
   174
100
AcDbText
 10
-234.34645
 20
-468.782002
 30
0.0
 40
3.0
  1
FOH
  7
Vcadd_HandPrnt
 72
     1
 11
-229.76255
 21
-468.782002
 31
0.0
100
AcDbText
  0
TEXT
  5
28C
100
AcDbEntity
  8
hidden positions
370
     0
390
0
  6
Continuous
 62
   174
100
AcDbText
 10
-418.504751
 20
-420.182002
 30
0.0
 40
3.0
  1
#1
  7
Vcadd_HandPrnt
 72
     1
 11
-416.446251
 21
-420.182002
 31
0.0
100
AcDbText
  0
TEXT
  5
28D
100
AcDbEntity
  8
hidden positions
370
     0
390
0
  6
Continuous
 62
   174
100
AcDbText
 10
-421.030151
 20
-423.782002
 30
0.0
 40
3.0
  1
FOH
  7
Vcadd_HandPrnt
 72
     1
 11
-416.446251
 21
-423.782002
 31
0.0
100
AcDbText
  0
TEXT
  5
28E
100
AcDbEntity
  8
0
370
     0
390
0
  6
Continuous
 62
   174
100
AcDbText
 10
-599.90003
 20
-420.182002
 30
0.0
 40
3.0
  1
#1
  7
Vcadd_HandPrnt
 72
     1
 11
-597.841529
 21
-420.182002
 31
0.0
100
AcDbText
  0
TEXT
  5
28F
100
AcDbEntity
  8
0
370
     0
390
0
  6
Continuous
 62
   174
100
AcDbText
 10
-602.42543
 20
-423.782002
 30
0.0
 40
3.0
  1
FOH
  7
Vcadd_HandPrnt
 72
     1
 11
-597.841529
 21
-423.782002
 31
0.0
100
AcDbText
  0
TEXT
  5
290
100
AcDbEntity
  8
0
370
     0
390
0
  6
Continuous
 62
   174
100
AcDbText
 10
-600.507229
 20
-465.182002
 30
0.0
 40
3.0
  1
#2
  7
Vcadd_HandPrnt
 72
     1
 11
-597.841529
 21
-465.182002
 31
0.0
100
AcDbText
  0
TEXT
  5
291
100
AcDbEntity
  8
0
370
     0
390
0
  6
Continuous
 62
   174
100
AcDbText
 10
-602.42543
 20
-468.782002
 30
0.0
 40
3.0
  1
FOH
  7
Vcadd_HandPrnt
 72
     1
 11
-597.841529
 21
-468.782002
 31
0.0
100
AcDbText
  0
LINE
  5
292
100
AcDbEntity
  8
0
370
     0
390
0
  6
Continuous
 62
   174
100
AcDbLine
 10
-314.460189
 20
-672.248584
 30
0.0
 11
-314.460189
 21
-669.248584
 31
0.0
  0
LINE
  5
293
100
AcDbEntity
  8
0
370
     0
390
0
  6
Continuous
 62
   174
100
AcDbLine
 10
-308.460189
 20
-672.248584
 30
0.0
 11
-308.460189
 21
-666.248584
 31
0.0
  0
TEXT
  5
294
100
AcDbEntity
  8
0
370
     0
390
0
  6
Continuous
 62
   174
100
AcDbText
 10
-309.614221
 20
-663.248584
 30
0.0
 40
3.0
  1
1'
  7
Vcadd_HandPrnt
 72
     1
 11
-308.460189
 21
-663.248584
 31
0.0
100
AcDbText
  0
LINE
  5
295
100
AcDbEntity
  8
0
370
     0
390
0
  6
Continuous
 62
   174
100
AcDbLine
 10
-302.460189
 20
-672.248584
 30
0.0
 11
-302.460189
 21
-669.248584
 31
0.0
  0
LINE
  5
296
100
AcDbEntity
  8
0
370
     0
390
0
  6
Continuous
 62
   174
100
AcDbLine
 10
-296.460189
 20
-672.248584
 30
0.0
 11
-296.460189
 21
-666.248584
 31
0.0
  0
LINE
  5
297
100
AcDbEntity
  8
0
370
     0
390
0
  6
Continuous
 62
   174
100
AcDbLine
 10
-290.460189
 20
-672.248584
 30
0.0
 11
-290.460189
 21
-669.248584
 31
0.0
  0
LINE
  5
298
100
AcDbEntity
  8
0
370
     0
390
0
  6
Continuous
 62
   174
100
AcDbLine
 10
-284.460189
 20
-672.248584
 30
0.0
 11
-284.460189
 21
-666.248584
 31
0.0
  0
LINE
  5
299
100
AcDbEntity
  8
0
370
     0
390
0
  6
Continuous
 62
   174
100
AcDbLine
 10
-278.460189
 20
-672.248584
 30
0.0
 11
-278.460189
 21
-669.248584
 31
0.0
  0
LINE
  5
29A
100
AcDbEntity
  8
0
370
     0
390
0
  6
Continuous
 62
   174
100
AcDbLine
 10
-272.460189
 20
-672.248584
 30
0.0
 11
-272.460189
 21
-666.248584
 31
0.0
  0
LINE
  5
29B
100
AcDbEntity
  8
0
370
     0
390
0
  6
Continuous
 62
   174
100
AcDbLine
 10
-266.460189
 20
-672.248584
 30
0.0
 11
-266.460189
 21
-669.248584
 31
0.0
  0
LINE
  5
29C
100
AcDbEntity
  8
0
370
     0
390
0
  6
Continuous
 62
   174
100
AcDbLine
 10
-260.460189
 20
-672.248584
 30
0.0
 11
-260.460189
 21
-666.248584
 31
0.0
  0
LINE
  5
29D
100
AcDbEntity
  8
0
370
     0
390
0
  6
Continuous
 62
   174
100
AcDbLine
 10
-254.460189
 20
-672.248584
 30
0.0
 11
-254.460189
 21
-669.248584
 31
0.0
  0
LINE
  5
29E
100
AcDbEntity
  8
0
370
     0
390
0
  6
Continuous
 62
   174
100
AcDbLine
 10
-248.460189
 20
-672.248584
 30
0.0
 11
-248.460189
 21
-666.248584
 31
0.0
  0
LINE
  5
29F
100
AcDbEntity
  8
0
370
     0
390
0
  6
Continuous
 62
   174
100
AcDbLine
 10
-242.460189
 20
-672.248584
 30
0.0
 11
-242.460189
 21
-669.248584
 31
0.0
  0
LINE
  5
2A0
100
AcDbEntity
  8
0
370
     0
390
0
  6
Continuous
 62
   174
100
AcDbLine
 10
-236.460189
 20
-672.248584
 30
0.0
 11
-236.460189
 21
-666.248584
 31
0.0
  0
LINE
  5
2A1
100
AcDbEntity
  8
0
370
     0
390
0
  6
Continuous
 62
   174
100
AcDbLine
 10
-230.460189
 20
-672.248584
 30
0.0
 11
-230.460189
 21
-669.248584
 31
0.0
  0
LINE
  5
2A2
100
AcDbEntity
  8
0
370
     0
390
0
  6
Continuous
 62
   174
100
AcDbLine
 10
-224.460189
 20
-672.248584
 30
0.0
 11
-224.460189
 21
-666.248584
 31
0.0
  0
LINE
  5
2A3
100
AcDbEntity
  8
0
370
     0
390
0
  6
Continuous
 62
   174
100
AcDbLine
 10
-218.460189
 20
-672.248584
 30
0.0
 11
-218.460189
 21
-669.248584
 31
0.0
  0
LINE
  5
2A4
100
AcDbEntity
  8
0
370
     0
390
0
  6
Continuous
 62
   174
100
AcDbLine
 10
-212.460189
 20
-672.248584
 30
0.0
 11
-212.460189
 21
-666.248584
 31
0.0
  0
LINE
  5
2A5
100
AcDbEntity
  8
0
370
     0
390
0
  6
Continuous
 62
   174
100
AcDbLine
 10
-206.460189
 20
-672.248584
 30
0.0
 11
-206.460189
 21
-669.248584
 31
0.0
  0
LINE
  5
2A6
100
AcDbEntity
  8
0
370
     0
390
0
  6
Continuous
 62
   174
100
AcDbLine
 10
-200.460189
 20
-672.248584
 30
0.0
 11
-200.460189
 21
-666.248584
 31
0.0
  0
LINE
  5
2A7
100
AcDbEntity
  8
0
370
     0
390
0
  6
Continuous
 62
   174
100
AcDbLine
 10
-194.460189
 20
-672.248584
 30
0.0
 11
-194.460189
 21
-669.248584
 31
0.0
  0
LINE
  5
2A8
100
AcDbEntity
  8
0
370
     0
390
0
  6
Continuous
 62
   174
100
AcDbLine
 10
-188.460189
 20
-672.248584
 30
0.0
 11
-188.460189
 21
-666.248584
 31
0.0
  0
LINE
  5
2A9
100
AcDbEntity
  8
0
370
     0
390
0
  6
Continuous
 62
   174
100
AcDbLine
 10
-182.460189
 20
-672.248584
 30
0.0
 11
-182.460189
 21
-669.248584
 31
0.0
  0
LINE
  5
2AA
100
AcDbEntity
  8
0
370
     0
390
0
  6
Continuous
 62
   174
100
AcDbLine
 10
-176.460189
 20
-672.248584
 30
0.0
 11
-176.460189
 21
-666.248584
 31
0.0
  0
LINE
  5
2AB
100
AcDbEntity
  8
0
370
     0
390
0
  6
Continuous
 62
   174
100
AcDbLine
 10
-170.460189
 20
-672.248584
 30
0.0
 11
-170.460189
 21
-669.248584
 31
0.0
  0
LINE
  5
2AC
100
AcDbEntity
  8
0
370
     0
390
0
  6
Continuous
 62
   174
100
AcDbLine
 10
-164.460189
 20
-672.248584
 30
0.0
 11
-164.460189
 21
-666.248584
 31
0.0
  0
LINE
  5
2AD
100
AcDbEntity
  8
0
370
     0
390
0
  6
Continuous
 62
   174
100
AcDbLine
 10
-158.460189
 20
-672.248584
 30
0.0
 11
-158.460189
 21
-669.248584
 31
0.0
  0
LINE
  5
2AE
100
AcDbEntity
  8
0
370
     0
390
0
  6
Continuous
 62
   174
100
AcDbLine
 10
-152.460189
 20
-672.248584
 30
0.0
 11
-152.460189
 21
-666.248584
 31
0.0
  0
LINE
  5
2AF
100
AcDbEntity
  8
0
370
     0
390
0
  6
Continuous
 62
   174
100
AcDbLine
 10
-146.460189
 20
-672.248584
 30
0.0
 11
-146.460189
 21
-669.248584
 31
0.0
  0
LINE
  5
2B0
100
AcDbEntity
  8
0
370
     0
390
0
  6
Continuous
 62
   174
100
AcDbLine
 10
-140.460189
 20
-672.248584
 30
0.0
 11
-140.460189
 21
-666.248584
 31
0.0
  0
LINE
  5
2B1
100
AcDbEntity
  8
0
370
     0
390
0
  6
Continuous
 62
   174
100
AcDbLine
 10
-134.460189
 20
-672.248584
 30
0.0
 11
-134.460189
 21
-669.248584
 31
0.0
  0
LINE
  5
2B2
100
AcDbEntity
  8
0
370
     0
390
0
  6
Continuous
 62
   174
100
AcDbLine
 10
-128.460189
 20
-672.248584
 30
0.0
 11
-128.460189
 21
-666.248584
 31
0.0
  0
LINE
  5
2B3
100
AcDbEntity
  8
0
370
     0
390
0
  6
Continuous
 62
   174
100
AcDbLine
 10
-122.460189
 20
-672.248584
 30
0.0
 11
-122.460189
 21
-669.248584
 31
0.0
  0
LINE
  5
2B4
100
AcDbEntity
  8
0
370
     0
390
0
  6
Continuous
 62
   174
100
AcDbLine
 10
-116.460189
 20
-672.248584
 30
0.0
 11
-116.460189
 21
-666.248584
 31
0.0
  0
LINE
  5
2B5
100
AcDbEntity
  8
0
370
     0
390
0
  6
Continuous
 62
   174
100
AcDbLine
 10
-110.460189
 20
-672.248584
 30
0.0
 11
-110.460189
 21
-669.248584
 31
0.0
  0
LINE
  5
2B6
100
AcDbEntity
  8
0
370
     0
390
0
  6
Continuous
 62
   174
100
AcDbLine
 10
-104.460189
 20
-672.248584
 30
0.0
 11
-104.460189
 21
-666.248584
 31
0.0
  0
LINE
  5
2B7
100
AcDbEntity
  8
0
370
     0
390
0
  6
Continuous
 62
   174
100
AcDbLine
 10
-98.460189
 20
-672.248584
 30
0.0
 11
-98.460189
 21
-669.248584
 31
0.0
  0
LINE
  5
2B8
100
AcDbEntity
  8
0
370
     0
390
0
  6
Continuous
 62
   174
100
AcDbLine
 10
-92.460189
 20
-672.248584
 30
0.0
 11
-92.460189
 21
-666.248584
 31
0.0
  0
LINE
  5
2B9
100
AcDbEntity
  8
0
370
     0
390
0
  6
Continuous
 62
   174
100
AcDbLine
 10
-86.460189
 20
-672.248584
 30
0.0
 11
-86.460189
 21
-669.248584
 31
0.0
  0
LINE
  5
2BA
100
AcDbEntity
  8
0
370
     0
390
0
  6
Continuous
 62
   174
100
AcDbLine
 10
-80.460189
 20
-672.248584
 30
0.0
 11
-80.460189
 21
-666.248584
 31
0.0
  0
LINE
  5
2BB
100
AcDbEntity
  8
0
370
     0
390
0
  6
Continuous
 62
   174
100
AcDbLine
 10
-320.460189
 20
-672.248584
 30
0.0
 11
-80.460189
 21
-672.284413
 31
0.0
  0
TEXT
  5
2BC
100
AcDbEntity
  8
0
370
     0
390
0
  6
Continuous
 62
   174
100
AcDbText
 10
-298.163137
 20
-663.248584
 30
0.0
 40
3.0
  1
2'
  7
Vcadd_HandPrnt
 72
     1
 11
-296.460189
 21
-663.248584
 31
0.0
100
AcDbText
  0
TEXT
  5
2BD
100
AcDbEntity
  8
0
370
     0
390
0
  6
Continuous
 62
   174
100
AcDbText
 10
-286.156915
 20
-663.248584
 30
0.0
 40
3.0
  1
3'
  7
Vcadd_HandPrnt
 72
     1
 11
-284.460189
 21
-663.248584
 31
0.0
100
AcDbText
  0
TEXT
  5
2BE
100
AcDbEntity
  8
0
370
     0
390
0
  6
Continuous
 62
   174
100
AcDbText
 10
-274.205673
 20
-663.248584
 30
0.0
 40
3.0
  1
4'
  7
Vcadd_HandPrnt
 72
     1
 11
-272.460189
 21
-663.248584
 31
0.0
100
AcDbText
  0
TEXT
  5
2BF
100
AcDbEntity
  8
0
370
     0
390
0
  6
Continuous
 62
   174
100
AcDbText
 10
-262.169843
 20
-663.248584
 30
0.0
 40
3.0
  1
5'
  7
Vcadd_HandPrnt
 72
     1
 11
-260.460189
 21
-663.248584
 31
0.0
100
AcDbText
  0
TEXT
  5
2C0
100
AcDbEntity
  8
0
370
     0
390
0
  6
Continuous
 62
   174
100
AcDbText
 10
-250.15146
 20
-663.248584
 30
0.0
 40
3.0
  1
6'
  7
Vcadd_HandPrnt
 72
     1
 11
-248.460189
 21
-663.248584
 31
0.0
100
AcDbText
  0
TEXT
  5
2C1
100
AcDbEntity
  8
0
370
     0
390
0
  6
Continuous
 62
   174
100
AcDbText
 10
-238.160656
 20
-663.248584
 30
0.0
 40
3.0
  1
7'
  7
Vcadd_HandPrnt
 72
     1
 11
-236.460189
 21
-663.248584
 31
0.0
100
AcDbText
  0
TEXT
  5
2C2
100
AcDbEntity
  8
0
370
     0
390
0
  6
Continuous
 62
   174
100
AcDbText
 10
-226.144936
 20
-663.248584
 30
0.0
 40
3.0
  1
9'
  7
Vcadd_HandPrnt
 72
     1
 11
-224.460189
 21
-663.248584
 31
0.0
100
AcDbText
  0
TEXT
  5
2C3
100
AcDbEntity
  8
0
370
     0
390
0
  6
Continuous
 62
   174
100
AcDbText
 10
-215.063897
 20
-663.248584
 30
0.0
 40
3.0
  1
10'
  7
Vcadd_HandPrnt
 72
     1
 11
-212.460189
 21
-663.248584
 31
0.0
100
AcDbText
  0
TEXT
  5
2C4
100
AcDbEntity
  8
0
370
     0
390
0
  6
Continuous
 62
   174
100
AcDbText
 10
-202.545125
 20
-663.248584
 30
0.0
 40
3.0
  1
11'
  7
Vcadd_HandPrnt
 72
     1
 11
-200.460189
 21
-663.248584
 31
0.0
100
AcDbText
  0
TEXT
  5
2C5
100
AcDbEntity
  8
0
370
     0
390
0
  6
Continuous
 62
   174
100
AcDbText
 10
-191.094042
 20
-663.248584
 30
0.0
 40
3.0
  1
12'
  7
Vcadd_HandPrnt
 72
     1
 11
-188.460189
 21
-663.248584
 31
0.0
100
AcDbText
  0
TEXT
  5
2C6
100
AcDbEntity
  8
0
370
     0
390
0
  6
Continuous
 62
   174
100
AcDbText
 10
-179.08782
 20
-663.248584
 30
0.0
 40
3.0
  1
13'
  7
Vcadd_HandPrnt
 72
     1
 11
-176.460189
 21
-663.248584
 31
0.0
100
AcDbText
  0
TEXT
  5
2C7
100
AcDbEntity
  8
0
370
     0
390
0
  6
Continuous
 62
   174
100
AcDbText
 10
-167.136577
 20
-663.248584
 30
0.0
 40
3.0
  1
14'
  7
Vcadd_HandPrnt
 72
     1
 11
-164.460189
 21
-663.248584
 31
0.0
100
AcDbText
  0
TEXT
  5
2C8
100
AcDbEntity
  8
0
370
     0
390
0
  6
Continuous
 62
   174
100
AcDbText
 10
-155.100747
 20
-663.248584
 30
0.0
 40
3.0
  1
15'
  7
Vcadd_HandPrnt
 72
     1
 11
-152.460189
 21
-663.248584
 31
0.0
100
AcDbText
  0
TEXT
  5
2C9
100
AcDbEntity
  8
0
370
     0
390
0
  6
Continuous
 62
   174
100
AcDbText
 10
-143.082365
 20
-663.248584
 30
0.0
 40
3.0
  1
16'
  7
Vcadd_HandPrnt
 72
     1
 11
-140.460189
 21
-663.248584
 31
0.0
100
AcDbText
  0
TEXT
  5
2CA
100
AcDbEntity
  8
0
370
     0
390
0
  6
Continuous
 62
   174
100
AcDbText
 10
-131.091561
 20
-663.248584
 30
0.0
 40
3.0
  1
17'
  7
Vcadd_HandPrnt
 72
     1
 11
-128.460189
 21
-663.248584
 31
0.0
100
AcDbText
  0
TEXT
  5
2CB
100
AcDbEntity
  8
0
370
     0
390
0
  6
Continuous
 62
   174
100
AcDbText
 10
-119.096102
 20
-663.248584
 30
0.0
 40
3.0
  1
18'
  7
Vcadd_HandPrnt
 72
     1
 11
-116.460189
 21
-663.248584
 31
0.0
100
AcDbText
  0
TEXT
  5
2CC
100
AcDbEntity
  8
0
370
     0
390
0
  6
Continuous
 62
   174
100
AcDbText
 10
-107.075841
 20
-663.248584
 30
0.0
 40
3.0
  1
19'
  7
Vcadd_HandPrnt
 72
     1
 11
-104.460189
 21
-663.248584
 31
0.0
100
AcDbText
  0
TEXT
  5
2CD
100
AcDbEntity
  8
0
370
     0
390
0
  6
Continuous
 62
   174
100
AcDbText
 10
-95.612814
 20
-663.248584
 30
0.0
 40
3.0
  1
20'
  7
Vcadd_HandPrnt
 72
     1
 11
-92.460189
 21
-663.248584
 31
0.0
100
AcDbText
  0
TEXT
  5
2CE
100
AcDbEntity
  8
0
370
     0
390
0
  6
Continuous
 62
   174
100
AcDbText
 10
-83.094042
 20
-663.248584
 30
0.0
 40
3.0
  1
21'
  7
Vcadd_HandPrnt
 72
     1
 11
-80.460189
 21
-663.248584
 31
0.0
100
AcDbText
  0
LINE
  5
2CF
100
AcDbEntity
  8
0
370
     0
390
0
  6
Continuous
 62
   174
100
AcDbLine
 10
-326.460189
 20
-672.248584
 30
0.0
 11
-326.460189
 21
-669.248584
 31
0.0
  0
LINE
  5
2D0
100
AcDbEntity
  8
0
370
     0
390
0
  6
Continuous
 62
   174
100
AcDbLine
 10
-332.460189
 20
-672.248584
 30
0.0
 11
-332.460189
 21
-666.248584
 31
0.0
  0
TEXT
  5
2D1
100
AcDbEntity
  8
0
370
     0
390
0
  6
Continuous
 62
   174
100
AcDbText
 10
-333.614221
 20
-663.248584
 30
0.0
 40
3.0
  1
1'
  7
Vcadd_HandPrnt
 72
     1
 11
-332.460189
 21
-663.248584
 31
0.0
100
AcDbText
  0
LINE
  5
2D2
100
AcDbEntity
  8
0
370
     0
390
0
  6
Continuous
 62
   174
100
AcDbLine
 10
-338.460189
 20
-672.248584
 30
0.0
 11
-338.460189
 21
-669.248584
 31
0.0
  0
LINE
  5
2D3
100
AcDbEntity
  8
0
370
     0
390
0
  6
Continuous
 62
   174
100
AcDbLine
 10
-344.460189
 20
-672.248584
 30
0.0
 11
-344.460189
 21
-666.248584
 31
0.0
  0
LINE
  5
2D4
100
AcDbEntity
  8
0
370
     0
390
0
  6
Continuous
 62
   174
100
AcDbLine
 10
-350.460189
 20
-672.248584
 30
0.0
 11
-350.460189
 21
-669.248584
 31
0.0
  0
LINE
  5
2D5
100
AcDbEntity
  8
0
370
     0
390
0
  6
Continuous
 62
   174
100
AcDbLine
 10
-356.460189
 20
-672.248584
 30
0.0
 11
-356.460189
 21
-666.248584
 31
0.0
  0
LINE
  5
2D6
100
AcDbEntity
  8
0
370
     0
390
0
  6
Continuous
 62
   174
100
AcDbLine
 10
-362.460189
 20
-672.248584
 30
0.0
 11
-362.460189
 21
-669.248584
 31
0.0
  0
LINE
  5
2D7
100
AcDbEntity
  8
0
370
     0
390
0
  6
Continuous
 62
   174
100
AcDbLine
 10
-368.460189
 20
-672.248584
 30
0.0
 11
-368.460189
 21
-666.248584
 31
0.0
  0
LINE
  5
2D8
100
AcDbEntity
  8
0
370
     0
390
0
  6
Continuous
 62
   174
100
AcDbLine
 10
-374.460189
 20
-672.248584
 30
0.0
 11
-374.460189
 21
-669.248584
 31
0.0
  0
LINE
  5
2D9
100
AcDbEntity
  8
0
370
     0
390
0
  6
Continuous
 62
   174
100
AcDbLine
 10
-380.460189
 20
-672.248584
 30
0.0
 11
-380.460189
 21
-666.248584
 31
0.0
  0
LINE
  5
2DA
100
AcDbEntity
  8
0
370
     0
390
0
  6
Continuous
 62
   174
100
AcDbLine
 10
-386.460189
 20
-672.248584
 30
0.0
 11
-386.460189
 21
-669.248584
 31
0.0
  0
LINE
  5
2DB
100
AcDbEntity
  8
0
370
     0
390
0
  6
Continuous
 62
   174
100
AcDbLine
 10
-392.460189
 20
-672.248584
 30
0.0
 11
-392.460189
 21
-666.248584
 31
0.0
  0
LINE
  5
2DC
100
AcDbEntity
  8
0
370
     0
390
0
  6
Continuous
 62
   174
100
AcDbLine
 10
-398.460189
 20
-672.248584
 30
0.0
 11
-398.460189
 21
-669.248584
 31
0.0
  0
LINE
  5
2DD
100
AcDbEntity
  8
0
370
     0
390
0
  6
Continuous
 62
   174
100
AcDbLine
 10
-404.460189
 20
-672.248584
 30
0.0
 11
-404.460189
 21
-666.248584
 31
0.0
  0
LINE
  5
2DE
100
AcDbEntity
  8
0
370
     0
390
0
  6
Continuous
 62
   174
100
AcDbLine
 10
-410.460189
 20
-672.248584
 30
0.0
 11
-410.460189
 21
-669.248584
 31
0.0
  0
LINE
  5
2DF
100
AcDbEntity
  8
0
370
     0
390
0
  6
Continuous
 62
   174
100
AcDbLine
 10
-416.460189
 20
-672.248584
 30
0.0
 11
-416.460189
 21
-666.248584
 31
0.0
  0
LINE
  5
2E0
100
AcDbEntity
  8
0
370
     0
390
0
  6
Continuous
 62
   174
100
AcDbLine
 10
-422.460189
 20
-672.248584
 30
0.0
 11
-422.460189
 21
-669.248584
 31
0.0
  0
LINE
  5
2E1
100
AcDbEntity
  8
0
370
     0
390
0
  6
Continuous
 62
   174
100
AcDbLine
 10
-428.460189
 20
-672.248584
 30
0.0
 11
-428.460189
 21
-666.248584
 31
0.0
  0
LINE
  5
2E2
100
AcDbEntity
  8
0
370
     0
390
0
  6
Continuous
 62
   174
100
AcDbLine
 10
-434.460189
 20
-672.248584
 30
0.0
 11
-434.460189
 21
-669.248584
 31
0.0
  0
LINE
  5
2E3
100
AcDbEntity
  8
0
370
     0
390
0
  6
Continuous
 62
   174
100
AcDbLine
 10
-440.460189
 20
-672.248584
 30
0.0
 11
-440.460189
 21
-666.248584
 31
0.0
  0
LINE
  5
2E4
100
AcDbEntity
  8
0
370
     0
390
0
  6
Continuous
 62
   174
100
AcDbLine
 10
-446.460189
 20
-672.248584
 30
0.0
 11
-446.460189
 21
-669.248584
 31
0.0
  0
LINE
  5
2E5
100
AcDbEntity
  8
0
370
     0
390
0
  6
Continuous
 62
   174
100
AcDbLine
 10
-452.460189
 20
-672.248584
 30
0.0
 11
-452.460189
 21
-666.248584
 31
0.0
  0
LINE
  5
2E6
100
AcDbEntity
  8
0
370
     0
390
0
  6
Continuous
 62
   174
100
AcDbLine
 10
-458.460189
 20
-672.248584
 30
0.0
 11
-458.460189
 21
-669.248584
 31
0.0
  0
LINE
  5
2E7
100
AcDbEntity
  8
0
370
     0
390
0
  6
Continuous
 62
   174
100
AcDbLine
 10
-464.460189
 20
-672.248584
 30
0.0
 11
-464.460189
 21
-666.248584
 31
0.0
  0
LINE
  5
2E8
100
AcDbEntity
  8
0
370
     0
390
0
  6
Continuous
 62
   174
100
AcDbLine
 10
-470.460189
 20
-672.248584
 30
0.0
 11
-470.460189
 21
-669.248584
 31
0.0
  0
LINE
  5
2E9
100
AcDbEntity
  8
0
370
     0
390
0
  6
Continuous
 62
   174
100
AcDbLine
 10
-476.460189
 20
-672.248584
 30
0.0
 11
-476.460189
 21
-666.248584
 31
0.0
  0
LINE
  5
2EA
100
AcDbEntity
  8
0
370
     0
390
0
  6
Continuous
 62
   174
100
AcDbLine
 10
-482.460189
 20
-672.248584
 30
0.0
 11
-482.460189
 21
-669.248584
 31
0.0
  0
LINE
  5
2EB
100
AcDbEntity
  8
0
370
     0
390
0
  6
Continuous
 62
   174
100
AcDbLine
 10
-488.460189
 20
-672.248584
 30
0.0
 11
-488.460189
 21
-666.248584
 31
0.0
  0
LINE
  5
2EC
100
AcDbEntity
  8
0
370
     0
390
0
  6
Continuous
 62
   174
100
AcDbLine
 10
-494.460189
 20
-672.248584
 30
0.0
 11
-494.460189
 21
-669.248584
 31
0.0
  0
LINE
  5
2ED
100
AcDbEntity
  8
0
370
     0
390
0
  6
Continuous
 62
   174
100
AcDbLine
 10
-500.460189
 20
-672.248584
 30
0.0
 11
-500.460189
 21
-666.248584
 31
0.0
  0
LINE
  5
2EE
100
AcDbEntity
  8
0
370
     0
390
0
  6
Continuous
 62
   174
100
AcDbLine
 10
-506.460189
 20
-672.248584
 30
0.0
 11
-506.460189
 21
-669.248584
 31
0.0
  0
LINE
  5
2EF
100
AcDbEntity
  8
0
370
     0
390
0
  6
Continuous
 62
   174
100
AcDbLine
 10
-512.460189
 20
-672.248584
 30
0.0
 11
-512.460189
 21
-666.248584
 31
0.0
  0
LINE
  5
2F0
100
AcDbEntity
  8
0
370
     0
390
0
  6
Continuous
 62
   174
100
AcDbLine
 10
-518.460189
 20
-672.248584
 30
0.0
 11
-518.460189
 21
-669.248584
 31
0.0
  0
LINE
  5
2F1
100
AcDbEntity
  8
0
370
     0
390
0
  6
Continuous
 62
   174
100
AcDbLine
 10
-524.460189
 20
-672.248584
 30
0.0
 11
-524.460189
 21
-666.248584
 31
0.0
  0
LINE
  5
2F2
100
AcDbEntity
  8
0
370
     0
390
0
  6
Continuous
 62
   174
100
AcDbLine
 10
-530.460189
 20
-672.248584
 30
0.0
 11
-530.460189
 21
-669.248584
 31
0.0
  0
LINE
  5
2F3
100
AcDbEntity
  8
0
370
     0
390
0
  6
Continuous
 62
   174
100
AcDbLine
 10
-536.460189
 20
-672.248584
 30
0.0
 11
-536.460189
 21
-666.248584
 31
0.0
  0
LINE
  5
2F4
100
AcDbEntity
  8
0
370
     0
390
0
  6
Continuous
 62
   174
100
AcDbLine
 10
-542.460189
 20
-672.248584
 30
0.0
 11
-542.460189
 21
-669.248584
 31
0.0
  0
LINE
  5
2F5
100
AcDbEntity
  8
0
370
     0
390
0
  6
Continuous
 62
   174
100
AcDbLine
 10
-548.460189
 20
-672.248584
 30
0.0
 11
-548.460189
 21
-666.248584
 31
0.0
  0
LINE
  5
2F6
100
AcDbEntity
  8
0
370
     0
390
0
  6
Continuous
 62
   174
100
AcDbLine
 10
-554.460189
 20
-672.248584
 30
0.0
 11
-554.460189
 21
-669.248584
 31
0.0
  0
LINE
  5
2F7
100
AcDbEntity
  8
0
370
     0
390
0
  6
Continuous
 62
   174
100
AcDbLine
 10
-560.460189
 20
-672.248584
 30
0.0
 11
-560.460189
 21
-666.248584
 31
0.0
  0
LINE
  5
2F8
100
AcDbEntity
  8
0
370
     0
390
0
  6
Continuous
 62
   174
100
AcDbLine
 10
-320.460189
 20
-672.248584
 30
0.0
 11
-560.460189
 21
-672.284413
 31
0.0
  0
TEXT
  5
2F9
100
AcDbEntity
  8
0
370
     0
390
0
  6
Continuous
 62
   174
100
AcDbText
 10
-346.163137
 20
-663.248584
 30
0.0
 40
3.0
  1
2'
  7
Vcadd_HandPrnt
 72
     1
 11
-344.460189
 21
-663.248584
 31
0.0
100
AcDbText
  0
TEXT
  5
2FA
100
AcDbEntity
  8
0
370
     0
390
0
  6
Continuous
 62
   174
100
AcDbText
 10
-358.156915
 20
-663.248584
 30
0.0
 40
3.0
  1
3'
  7
Vcadd_HandPrnt
 72
     1
 11
-356.460189
 21
-663.248584
 31
0.0
100
AcDbText
  0
TEXT
  5
2FB
100
AcDbEntity
  8
0
370
     0
390
0
  6
Continuous
 62
   174
100
AcDbText
 10
-370.205673
 20
-663.248584
 30
0.0
 40
3.0
  1
4'
  7
Vcadd_HandPrnt
 72
     1
 11
-368.460189
 21
-663.248584
 31
0.0
100
AcDbText
  0
TEXT
  5
2FC
100
AcDbEntity
  8
0
370
     0
390
0
  6
Continuous
 62
   174
100
AcDbText
 10
-382.169843
 20
-663.248584
 30
0.0
 40
3.0
  1
5'
  7
Vcadd_HandPrnt
 72
     1
 11
-380.460189
 21
-663.248584
 31
0.0
100
AcDbText
  0
TEXT
  5
2FD
100
AcDbEntity
  8
0
370
     0
390
0
  6
Continuous
 62
   174
100
AcDbText
 10
-394.15146
 20
-663.248584
 30
0.0
 40
3.0
  1
6'
  7
Vcadd_HandPrnt
 72
     1
 11
-392.460189
 21
-663.248584
 31
0.0
100
AcDbText
  0
TEXT
  5
2FE
100
AcDbEntity
  8
0
370
     0
390
0
  6
Continuous
 62
   174
100
AcDbText
 10
-406.160656
 20
-663.248584
 30
0.0
 40
3.0
  1
7'
  7
Vcadd_HandPrnt
 72
     1
 11
-404.460189
 21
-663.248584
 31
0.0
100
AcDbText
  0
TEXT
  5
2FF
100
AcDbEntity
  8
0
370
     0
390
0
  6
Continuous
 62
   174
100
AcDbText
 10
-418.144936
 20
-663.248584
 30
0.0
 40
3.0
  1
9'
  7
Vcadd_HandPrnt
 72
     1
 11
-416.460189
 21
-663.248584
 31
0.0
100
AcDbText
  0
TEXT
  5
300
100
AcDbEntity
  8
0
370
     0
390
0
  6
Continuous
 62
   174
100
AcDbText
 10
-431.063897
 20
-663.248584
 30
0.0
 40
3.0
  1
10'
  7
Vcadd_HandPrnt
 72
     1
 11
-428.460189
 21
-663.248584
 31
0.0
100
AcDbText
  0
TEXT
  5
301
100
AcDbEntity
  8
0
370
     0
390
0
  6
Continuous
 62
   174
100
AcDbText
 10
-442.545125
 20
-663.248584
 30
0.0
 40
3.0
  1
11'
  7
Vcadd_HandPrnt
 72
     1
 11
-440.460189
 21
-663.248584
 31
0.0
100
AcDbText
  0
TEXT
  5
302
100
AcDbEntity
  8
0
370
     0
390
0
  6
Continuous
 62
   174
100
AcDbText
 10
-455.094042
 20
-663.248584
 30
0.0
 40
3.0
  1
12'
  7
Vcadd_HandPrnt
 72
     1
 11
-452.460189
 21
-663.248584
 31
0.0
100
AcDbText
  0
TEXT
  5
303
100
AcDbEntity
  8
0
370
     0
390
0
  6
Continuous
 62
   174
100
AcDbText
 10
-467.08782
 20
-663.248584
 30
0.0
 40
3.0
  1
13'
  7
Vcadd_HandPrnt
 72
     1
 11
-464.460189
 21
-663.248584
 31
0.0
100
AcDbText
  0
TEXT
  5
304
100
AcDbEntity
  8
0
370
     0
390
0
  6
Continuous
 62
   174
100
AcDbText
 10
-479.136577
 20
-663.248584
 30
0.0
 40
3.0
  1
14'
  7
Vcadd_HandPrnt
 72
     1
 11
-476.460189
 21
-663.248584
 31
0.0
100
AcDbText
  0
TEXT
  5
305
100
AcDbEntity
  8
0
370
     0
390
0
  6
Continuous
 62
   174
100
AcDbText
 10
-491.100747
 20
-663.248584
 30
0.0
 40
3.0
  1
15'
  7
Vcadd_HandPrnt
 72
     1
 11
-488.460189
 21
-663.248584
 31
0.0
100
AcDbText
  0
TEXT
  5
306
100
AcDbEntity
  8
0
370
     0
390
0
  6
Continuous
 62
   174
100
AcDbText
 10
-503.082365
 20
-663.248584
 30
0.0
 40
3.0
  1
16'
  7
Vcadd_HandPrnt
 72
     1
 11
-500.460189
 21
-663.248584
 31
0.0
100
AcDbText
  0
TEXT
  5
307
100
AcDbEntity
  8
0
370
     0
390
0
  6
Continuous
 62
   174
100
AcDbText
 10
-515.091561
 20
-663.248584
 30
0.0
 40
3.0
  1
17'
  7
Vcadd_HandPrnt
 72
     1
 11
-512.460189
 21
-663.248584
 31
0.0
100
AcDbText
  0
TEXT
  5
308
100
AcDbEntity
  8
0
370
     0
390
0
  6
Continuous
 62
   174
100
AcDbText
 10
-527.096102
 20
-663.248584
 30
0.0
 40
3.0
  1
18'
  7
Vcadd_HandPrnt
 72
     1
 11
-524.460189
 21
-663.248584
 31
0.0
100
AcDbText
  0
TEXT
  5
309
100
AcDbEntity
  8
0
370
     0
390
0
  6
Continuous
 62
   174
100
AcDbText
 10
-539.075841
 20
-663.248584
 30
0.0
 40
3.0
  1
19'
  7
Vcadd_HandPrnt
 72
     1
 11
-536.460189
 21
-663.248584
 31
0.0
100
AcDbText
  0
TEXT
  5
30A
100
AcDbEntity
  8
0
370
     0
390
0
  6
Continuous
 62
   174
100
AcDbText
 10
-551.612814
 20
-663.248584
 30
0.0
 40
3.0
  1
20'
  7
Vcadd_HandPrnt
 72
     1
 11
-548.460189
 21
-663.248584
 31
0.0
100
AcDbText
  0
TEXT
  5
30B
100
AcDbEntity
  8
0
370
     0
390
0
  6
Continuous
 62
   174
100
AcDbText
 10
-563.094042
 20
-663.248584
 30
0.0
 40
3.0
  1
21'
  7
Vcadd_HandPrnt
 72
     1
 11
-560.460189
 21
-663.248584
 31
0.0
100
AcDbText
  0
LINE
  5
30D
100
AcDbEntity
  8
0
370
     0
390
0
  6
CENTER
 62
     1
100
AcDbLine
 10
-320.460189
 20
-672.248584
 30
0.0
 11
-320.460189
 21
-613.795188
 31
0.0
  0
INSERT
  5
362
100
AcDbEntity
  8
0
370
     0
390
0
  6
Continuous
 62
     7
100
AcDbBlockReference
  2
centerline
 10
-320.460189
 20
-607.694691
 30
0.0
  0
TEXT
  5
363
100
AcDbEntity
  8
0
370
     0
390
0
  6
Continuous
 62
   174
100
AcDbText
 10
-284.00547
 20
-598.912783
 30
0.0
 40
2.5
  1
Booth
  7
Vcadd_HandPrnt
 72
     1
 11
-278.92247
 21
-598.912783
 31
0.0
100
AcDbText
  0
TEXT
  5
364
100
AcDbEntity
  8
0
370
     0
390
0
  6
Continuous
 62
   174
100
AcDbText
 10
-281.989137
 20
-601.912783
 30
0.0
 40
2.5
  1
Rail
  7
Vcadd_HandPrnt
 72
     1
 11
-278.92247
 21
-601.912783
 31
0.0
100
AcDbText
  0
TEXT
  5
365
100
AcDbEntity
  8
0
370
     0
390
0
  6
Continuous
 62
   174
100
AcDbText
 10
-90.092089
 20
-39.659471
 30
0.0
 40
3.0
  1
Air Duct
 41
-1.0
  7
Vcadd_HandPrnt
100
AcDbText
  0
INSERT
  5
366
100
AcDbEntity
  8
hidden positions
370
     0
390
0
  6
DOT
 62
     7
100
AcDbBlockReference
  2
hanging position
 10
-408.695096
 20
-466.630422
 30
0.0
  0
TEXT
  5
367
100
AcDbEntity
  8
hidden positions
370
     0
390
0
  6
Continuous
 62
   174
100
AcDbText
 10
-411.360796
 20
-465.182002
 30
0.0
 40
3.0
  1
#2
  7
Vcadd_HandPrnt
 72
     1
 11
-408.695096
 21
-465.182002
 31
0.0
100
AcDbText
  0
TEXT
  5
368
100
AcDbEntity
  8
hidden positions
370
     0
390
0
  6
Continuous
 62
   174
100
AcDbText
 10
-413.278996
 20
-468.782002
 30
0.0
 40
3.0
  1
FOH
  7
Vcadd_HandPrnt
 72
     1
 11
-408.695096
 21
-468.782002
 31
0.0
100
AcDbText
  0
INSERT
  5
369
100
AcDbEntity
  8
hidden positions
370
     0
390
0
  6
DOT
 62
     7
100
AcDbBlockReference
  2
hanging position
 10
-121.960189
 20
-200.95477
 30
0.0
  0
INSERT
  5
36A
100
AcDbEntity
  8
hidden positions
370
     0
390
0
  6
DOT
 62
     7
100
AcDbBlockReference
  2
hanging position
 10
-235.176011
 20
-274.630422
 30
0.0
  0
TEXT
  5
36B
100
AcDbEntity
  8
hidden positions
370
     0
390
0
  6
Continuous
 62
   174
100
AcDbText
 10
-236.891428
 20
-273.182002
 30
0.0
 40
2.5
  1
#1
  7
Vcadd_HandPrnt
 72
     1
 11
-235.176011
 21
-273.182002
 31
0.0
100
AcDbText
  0
TEXT
  5
36C
100
AcDbEntity
  8
hidden positions
370
     0
390
0
  6
Continuous
 62
   174
100
AcDbText
 10
-241.660094
 20
-276.182002
 30
0.0
 40
2.5
  1
Electric
  7
Vcadd_HandPrnt
 72
     1
 11
-235.176011
 21
-276.182002
 31
0.0
100
AcDbText
  0
INSERT
  5
36D
100
AcDbEntity
  8
hidden positions
370
     0
390
0
  6
DOT
 62
     7
100
AcDbBlockReference
  2
hanging position
 10
-234.936862
 20
-127.659144
 30
0.0
  0
TEXT
  5
36E
100
AcDbEntity
  8
hidden positions
370
     0
390
0
  6
Continuous
 62
   174
100
AcDbText
 10
-237.158279
 20
-126.210724
 30
0.0
 40
2.5
  1
#2
  7
Vcadd_HandPrnt
 72
     1
 11
-234.936862
 21
-126.210724
 31
0.0
100
AcDbText
  0
TEXT
  5
36F
100
AcDbEntity
  8
hidden positions
370
     0
390
0
  6
Continuous
 62
   174
100
AcDbText
 10
-241.420945
 20
-129.210724
 30
0.0
 40
2.5
  1
Electric
  7
Vcadd_HandPrnt
 72
     1
 11
-234.936862
 21
-129.210724
 31
0.0
100
AcDbText
  0
INSERT
  5
370
100
AcDbEntity
  8
hidden positions
370
     0
390
0
  6
DOT
 62
     7
100
AcDbBlockReference
  2
hanging position
 10
-435.599903
 20
-127.659144
 30
0.0
  0
TEXT
  5
371
100
AcDbEntity
  8
hidden positions
370
     0
390
0
  6
Continuous
 62
   174
100
AcDbText
 10
-437.821319
 20
-126.210724
 30
0.0
 40
2.5
  1
#2
  7
Vcadd_HandPrnt
 72
     1
 11
-435.599903
 21
-126.210724
 31
0.0
100
AcDbText
  0
TEXT
  5
372
100
AcDbEntity
  8
hidden positions
370
     0
390
0
  6
Continuous
 62
   174
100
AcDbText
 10
-442.083986
 20
-129.210724
 30
0.0
 40
2.5
  1
Electric
  7
Vcadd_HandPrnt
 72
     1
 11
-435.599903
 21
-129.210724
 31
0.0
100
AcDbText
  0
ELLIPSE
  5
373
100
AcDbEntity
  8
0
370
     0
390
0
  6
Continuous
 62
     7
100
AcDbEllipse
 10
-544.322801
 20
-139.431562
 30
0.0
 11
-8.9098470612151459
 21
0.0
 31
0.0
210
0.0
220
0.0
230
1.0
 40
0.467593
 41
0.0
 42
6.2831853071795862
  0
TEXT
  5
374
100
AcDbEntity
  8
0
370
     0
390
0
  6
Continuous
 62
   174
100
AcDbText
 10
-551.893044
 20
-140.763847
 30
0.0
 40
3.0
  1
+10'-6"
  7
Vcadd_HandPrnt
100
AcDbText
  0
ELLIPSE
  5
375
100
AcDbEntity
  8
0
370
     0
390
0
  6
Continuous
 62
     7
100
AcDbEllipse
 10
-96.618715
 20
-139.306711
 30
0.0
 11
8.9098470612151459
 21
-0.0000000000000284
 31
0.0
210
0.0
220
0.0
230
1.0
 40
0.467593
 41
0.0
 42
6.2831853071795862
  0
TEXT
  5
376
100
AcDbEntity
  8
0
370
     0
390
0
  6
Continuous
 62
   174
100
AcDbText
 10
-89.048472
 20
-140.638997
 30
0.0
 40
3.0
  1
+10'-6"
 41
-1.0
  7
Vcadd_HandPrnt
100
AcDbText
  0
POLYLINE
  5
377
100
AcDbEntity
  8
Lamps
370
     0
390
0
  6
CENTER
 62
     1
100
AcDb2dPolyline
 66
     1
 10
0.0
 20
0.0
 30
0.0
 70
   128
  0
VERTEX
  5
378
100
AcDbEntity
  8
Lamps
370
     0
390
0
  6
CENTER
 62
     1
100
AcDbVertex
100
AcDb2dVertex
 10
-320.460189
 20
-584.324135
 30
0.0
  0
VERTEX
  5
379
100
AcDbEntity
  8
Lamps
370
     0
390
0
  6
CENTER
 62
     1
100
AcDbVertex
100
AcDb2dVertex
 10
-320.460189
 20
-205.447759
 30
0.0
  0
VERTEX
  5
37A
100
AcDbEntity
  8
Lamps
370
     0
390
0
  6
CENTER
 62
     1
100
AcDbVertex
100
AcDb2dVertex
 10
-320.460189
 20
-124.826508
 30
0.0
  0
VERTEX
  5
37B
100
AcDbEntity
  8
Lamps
370
     0
390
0
  6
CENTER
 62
     1
100
AcDbVertex
100
AcDb2dVertex
 10
-320.460189
 20
-39.087209
 30
0.0
  0
SEQEND
  5
37C
100
AcDbEntity
  8
Lamps
370
     0
390
0
  6
CENTER
 62
     1
  0
LINE
  5
37D
100
AcDbEntity
  8
0
370
     0
390
0
  6
DASHED
 62
     1
100
AcDbLine
 10
-73.960189
 20
-292.630422
 30
0.0
 11
-566.960189
 21
-292.630422
 31
0.0
  0
ENDSEC
  0
SECTION
  2
OBJECTS
  0
DICTIONARY
  5
19
100
AcDbDictionary
280
     0
281
     1
  3
ACAD_GROUP
350
1A
  3
ACAD_MLINESTYLE
350
1B
  3
ACAD_LAYOUT
350
1E
  3
ACAD_PLOTSETTINGS
350
22
  3
ACAD_PLOTSTYLENAME
350
1F
  3
ACAD_WIPEOUT_VARS
350
23
  0
DICTIONARY
  5
1A
102
{ACAD_REACTORS
330
19
102
}
100
AcDbDictionary
280
     0
281
     1
  0
DICTIONARY
  5
1B
102
{ACAD_REACTORS
330
19
102
}
100
AcDbDictionary
280
     0
281
     1
  3
Standard
350
1C
  0
MLINESTYLE
  5
1C
102
{ACAD_REACTORS
330
1B
102
}
100
AcDbMlineStyle
  2
Standard
 70
     0
  3

 62
     0
 51
90.0
 52
90.0
 71
     2
 49
0.5
 62
   256
  6
ByLayer
 49
-0.5
 62
   256
  6
ByLayer
  0
ACDBDICTIONARYWDFLT
  5
1F
102
{ACAD_REACTORS
330
19
102
}
100
AcDbDictionary
281
     1
  3
Normal
350
1D
100
AcDbDictionaryWithDefault
340
1D
  0
ACDBPLACEHOLDER
  5
1D
102
{ACAD_REACTORS
330
1F
102
}
  0
LAYOUT
  5
20
102
{ACAD_REACTORS
330
1E
102
}
100
AcDbPlotSettings
  1

  2

  4

  6

 40
0.0
 41
0.0
 42
0.0
 43
0.0
 44
0.0
 45
0.0
 46
0.0
 47
0.0
 48
0.0
 49
0.0
140
0.0
141
0.0
142
1.0
143
1.0
 70
  1024
 72
     0
 73
     0
 74
     0
  7

 75
     0
147
1.0
148
0.0
149
0.0
100
AcDbLayout
  1
Model
 70
     0
 71
     0
 10
0.0
 20
0.0
 11
0.0
 21
0.0
 12
0.0
 22
0.0
 32
0.0
 14
0.0
 24
0.0
 34
0.0
 15
0.0
 25
0.0
 35
0.0
146
0.0
 13
0.0
 23
0.0
 33
0.0
 16
0.0
 26
0.0
 36
0.0
 17
0.0
 27
0.0
 37
0.0
 76
     0
330
A
331
0
345
0
346
0
  0
LAYOUT
  5
21
102
{ACAD_REACTORS
330
1E
102
}
100
AcDbPlotSettings
  1

  2

  4

  6

 40
0.0
 41
0.0
 42
0.0
 43
0.0
 44
0.0
 45
0.0
 46
0.0
 47
0.0
 48
0.0
 49
0.0
140
0.0
141
0.0
142
1.0
143
1.0
 70
     0
 72
     0
 73
     0
 74
     0
  7

 75
     0
147
1.0
148
0.0
149
0.0
100
AcDbLayout
  1
Layout1
 70
     0
 71
     0
 10
0.0
 20
0.0
 11
0.0
 21
0.0
 12
0.0
 22
0.0
 32
0.0
 14
0.0
 24
0.0
 34
0.0
 15
0.0
 25
0.0
 35
0.0
146
0.0
 13
0.0
 23
0.0
 33
0.0
 16
0.0
 26
0.0
 36
0.0
 17
0.0
 27
0.0
 37
0.0
 76
     0
330
B
331
0
345
0
346
0
  0
DICTIONARY
  5
1E
102
{ACAD_REACTORS
330
19
102
}
100
AcDbDictionary
280
     0
281
     1
  3
Layout1
350
21
  3
Model
350
20
  0
DICTIONARY
  5
22
102
{ACAD_REACTORS
330
19
102
}
100
AcDbDictionary
280
     0
281
     1
  0
WIPEOUTVARIABLES
  5
23
100
AcDbWipeoutVariables
 70
     1
  0
ENDSEC
  0
EOF
