  0
SECTION
  2
HEADER
  9
$ACADVER
  1
AC1015
  9
$ACADMAINTVER
 70
     6
  9
$DWGCODEPAGE
  3
ANSI_1252
  9
$INSBASE
 10
0.0
 20
0.0
 30
0.0
  9
$EXTMIN
 10
-423.783142
 20
-1013.765015
 30
0.0
  9
$EXTMAX
 10
110.216866
 20
-593.722595
 30
0.0
  9
$LIMMIN
 10
0.0
 20
0.0
  9
$LIMMAX
 10
0.0
 20
0.0
  9
$ORTHOMODE
 70
     0
  9
$REGENMODE
 70
     1
  9
$FILLMODE
 70
     1
  9
$QTEXTMODE
 70
     0
  9
$MIRRTEXT
 70
     1
  9
$LTSCALE
 40
1.0
  9
$ATTMODE
 70
     1
  9
$TEXTSIZE
 40
0.2
  9
$TRACEWID
 40
0.05
  9
$TEXTSTYLE
  7
Standard
  9
$CLAYER
  8
0
  9
$CELTYPE
  6
Continuous
  9
$CECOLOR
 62
   256
  9
$CELTSCALE
 40
1.0
  9
$DISPSILH
 70
     0
  9
$DIMSCALE
 40
1.0
  9
$DIMASZ
 40
0.18
  9
$DIMEXO
 40
0.0625
  9
$DIMDLI
 40
0.38
  9
$DIMRND
 40
0.0
  9
$DIMDLE
 40
0.0
  9
$DIMEXE
 40
0.18
  9
$DIMTP
 40
0.0
  9
$DIMTM
 40
0.0
  9
$DIMTXT
 40
0.18
  9
$DIMCEN
 40
0.09
  9
$DIMTSZ
 40
0.0
  9
$DIMTOL
 70
     0
  9
$DIMLIM
 70
     0
  9
$DIMTIH
 70
     1
  9
$DIMTOH
 70
     1
  9
$DIMSE1
 70
     0
  9
$DIMSE2
 70
     0
  9
$DIMTAD
 70
     0
  9
$DIMZIN
 70
     0
  9
$DIMBLK
  1

  9
$DIMASO
 70
     1
  9
$DIMSHO
 70
     1
  9
$DIMPOST
  1

  9
$DIMAPOST
  1

  9
$DIMALT
 70
     0
  9
$DIMALTD
 70
     2
  9
$DIMALTF
 40
25.4
  9
$DIMLFAC
 40
1.0
  9
$DIMTOFL
 70
     0
  9
$DIMTVP
 40
0.0
  9
$DIMTIX
 70
     0
  9
$DIMSOXD
 70
     0
  9
$DIMSAH
 70
     0
  9
$DIMBLK1
  1

  9
$DIMBLK2
  1

  9
$DIMSTYLE
  2
Standard
  9
$DIMCLRD
 70
     0
  9
$DIMCLRE
 70
     0
  9
$DIMCLRT
 70
     0
  9
$DIMTFAC
 40
1.0
  9
$DIMGAP
 40
0.09
  9
$DIMJUST
 70
     0
  9
$DIMSD1
 70
     0
  9
$DIMSD2
 70
     0
  9
$DIMTOLJ
 70
     1
  9
$DIMTZIN
 70
     0
  9
$DIMALTZ
 70
     0
  9
$DIMALTTZ
 70
     0
  9
$DIMUPT
 70
     0
  9
$DIMDEC
 70
     4
  9
$DIMTDEC
 70
     4
  9
$DIMALTU
 70
     2
  9
$DIMALTTD
 70
     2
  9
$DIMTXSTY
  7
Standard
  9
$DIMAUNIT
 70
     0
  9
$DIMADEC
 70
     0
  9
$DIMALTRND
 40
0.0
  9
$DIMAZIN
 70
     0
  9
$DIMDSEP
 70
     0
  9
$DIMATFIT
 70
     3
  9
$DIMFRAC
 70
     0
  9
$DIMLDRBLK
  1

  9
$DIMLUNIT
 70
     2
  9
$DIMLWD
 70
     0
  9
$DIMLWE
 70
     0
  9
$DIMTMOVE
 70
     0
  9
$LUNITS
 70
     2
  9
$LUPREC
 70
     4
  9
$SKETCHINC
 40
0.1
  9
$FILLETRAD
 40
0.0
  9
$AUNITS
 70
     0
  9
$AUPREC
 70
     0
  9
$MENU
  1
acad
  9
$ELEVATION
 40
0.0
  9
$PELEVATION
 40
0.0
  9
$THICKNESS
 40
0.0
  9
$LIMCHECK
 70
     0
  9
$CHAMFERA
 40
0.0
  9
$CHAMFERB
 40
0.0
  9
$CHAMFERC
 40
0.0
  9
$CHAMFERD
 40
0.0
  9
$SKPOLY
 70
     0
  9
$TDCREATE
 40
0.000000000
  9
$TDUCREATE
 40
0.000000000
  9
$TDUPDATE
 40
0.000000000
  9
$TDUUPDATE
 40
0.000000000
  9
$TDINDWG
 40
0.0000000000
  9
$TDUSRTIMER
 40
0.0000000000
  9
$USRTIMER
 70
     1
  9
$ANGBASE
 50
0.0
  9
$ANGDIR
 70
     0
  9
$PDMODE
 70
     2
  9
$PDSIZE
 40
-1.0
  9
$PLINEWID
 40
0.0
  9
$SPLFRAME
 70
     0
  9
$SPLINETYPE
 70
     6
  9
$SPLINESEGS
 70
     8
  9
$HANDSEED
  5
35A
  9
$SURFTAB1
 70
     6
  9
$SURFTAB2
 70
     6
  9
$SURFTYPE
 70
     6
  9
$SURFU
 70
     6
  9
$SURFV
 70
     6
  9
$UCSBASE
  2

  9
$UCSNAME
  2

  9
$UCSORG
 10
0.0
 20
0.0
 30
0.0
  9
$UCSXDIR
 10
1.0
 20
0.0
 30
0.0
  9
$UCSYDIR
 10
0.0
 20
1.0
 30
0.0
  9
$UCSORTHOREF
  2

  9
$UCSORTHOVIEW
 70
     0
  9
$UCSORGTOP
 10
0.0
 20
0.0
 30
0.0
  9
$UCSORGBOTTOM
 10
0.0
 20
0.0
 30
0.0
  9
$UCSORGLEFT
 10
0.0
 20
0.0
 30
0.0
  9
$UCSORGRIGHT
 10
0.0
 20
0.0
 30
0.0
  9
$UCSORGFRONT
 10
0.0
 20
0.0
 30
0.0
  9
$UCSORGBACK
 10
0.0
 20
0.0
 30
0.0
  9
$PUCSBASE
  2

  9
$PUCSNAME
  2

  9
$PUCSORG
 10
0.0
 20
0.0
 30
0.0
  9
$PUCSXDIR
 10
1.0
 20
0.0
 30
0.0
  9
$PUCSYDIR
 10
0.0
 20
1.0
 30
0.0
  9
$PUCSORTHOREF
  2

  9
$PUCSORTHOVIEW
 70
     0
  9
$PUCSORGTOP
 10
0.0
 20
0.0
 30
0.0
  9
$PUCSORGBOTTOM
 10
0.0
 20
0.0
 30
0.0
  9
$PUCSORGLEFT
 10
0.0
 20
0.0
 30
0.0
  9
$PUCSORGRIGHT
 10
0.0
 20
0.0
 30
0.0
  9
$PUCSORGFRONT
 10
0.0
 20
0.0
 30
0.0
  9
$PUCSORGBACK
 10
0.0
 20
0.0
 30
0.0
  9
$USERI1
 70
     0
  9
$USERI2
 70
     0
  9
$USERI3
 70
     0
  9
$USERI4
 70
     0
  9
$USERI5
 70
     0
  9
$USERR1
 40
0.0
  9
$USERR2
 40
0.0
  9
$USERR3
 40
0.0
  9
$USERR4
 40
0.0
  9
$USERR5
 40
0.0
  9
$WORLDVIEW
 70
     1
  9
$SHADEDGE
 70
     3
  9
$SHADEDIF
 70
    70
  9
$TILEMODE
 70
     1
  9
$MAXACTVP
 70
    16
  9
$PINSBASE
 10
0.0
 20
0.0
 30
0.0
  9
$PLIMCHECK
 70
     0
  9
$PEXTMIN
 10
1.000000E+20
 20
1.000000E+20
 30
1.000000E+20
  9
$PEXTMAX
 10
-1.000000E+20
 20
-1.000000E+20
 30
-1.000000E+20
  9
$PLIMMIN
 10
0.0
 20
0.0
  9
$PLIMMAX
 10
12.0
 20
9.0
  9
$UNITMODE
 70
     0
  9
$VISRETAIN
 70
     0
  9
$PLINEGEN
 70
     1
  9
$PSLTSCALE
 70
     0
  9
$TREEDEPTH
 70
  3020
  9
$CMLSTYLE
  2
Standard
  9
$CMLJUST
 70
     0
  9
$CMLSCALE
 40
1.0
  9
$PROXYGRAPHICS
 70
     0
  9
$MEASUREMENT
 70
     0
  9
$CELWEIGHT
370
     0
  9
$ENDCAPS
280
     0
  9
$JOINSTYLE
280
     0
  9
$LWDISPLAY
290
     1
  9
$INSUNITS
 70
     0
  9
$HYPERLINKBASE
  1

  9
$STYLESHEET
  1

  9
$XEDIT
290
     1
  9
$CEPSNTYPE
380
     0
  9
$PSTYLEMODE
290
     1
  9
$FINGERPRINTGUID
  2

  9
$VERSIONGUID
  2

  9
$EXTNAMES
290
     1
  9
$PSVPSCALE
 40
0.0
  0
ENDSEC
  0
SECTION
  2
CLASSES
  0
CLASS
  1
LWPOLYLINE
  2
AcDbPolyline
  3
AutoCAD 2000
 90
        0
280
     0
281
     1
  0
CLASS
  1
IMAGE
  2
AcDbRasterImage
  3
ISM
 90
      127
280
     0
281
     1
  0
CLASS
  1
OLE2FRAME
  2
AcDbOle2Frame
  3
AutoCAD 2000
 90
        0
280
     0
281
     1
  0
CLASS
  1
HATCH
  2
AcDbHatch
  3
AutoCAD 2000
 90
        0
280
     0
281
     1
  0
CLASS
  1
DICTIONARYVAR
  2
AcDbDictionaryVar
  3
AutoCAD 2000
 90
        0
280
     0
281
     0
  0
CLASS
  1
RASTERVARIABLES
  2
AcDbRasterVariables
  3
ISM
 90
        0
280
     0
281
     0
  0
CLASS
  1
IMAGEDEF
  2
AcDbRasterImageDef
  3
ISM
 90
        0
280
     0
281
     0
  0
CLASS
  1
IMAGEDEF_REACTOR
  2
AcDbRasterImageDefReactor
  3
ISM
 90
        1
280
     0
281
     0
  0
CLASS
  1
IDBUFFER
  2
AcDbIdBuffer
  3
AutoCAD 2000
 90
        0
280
     0
281
     0
  0
CLASS
  1
SPATIAL_FILTER
  2
AcDbSpatialFilter
  3
AutoCAD 2000
 90
        0
280
     0
281
     0
  0
CLASS
  1
XRECORD
  2
AcDbXrecord
  3
AutoCAD 2000
 90
        0
280
     0
281
     0
  0
CLASS
  1
SORTENTSTABLE
  2
AcDbSortentsTable
  3
AutoCAD 2000
 90
        0
280
     0
281
     0
  0
CLASS
  1
LAYER_INDEX
  2
AcDbLayerIndex
  3
AutoCAD 2000
 90
        0
280
     0
281
     0
  0
CLASS
  1
SPATIAL_INDEX
  2
AcDbSpatialIndex
  3
AutoCAD 2000
 90
        0
280
     0
281
     0
  0
CLASS
  1
OBJECT_PTR
  2
CAseDLPNTableRecord
  3
"ASE-LPNTableRecord"
 90
        1
280
     0
281
     0
  0
CLASS
  1
LAYOUT
  2
AcDbLayout
  3
AutoCAD 2000
 90
        0
280
     0
281
     0
  0
CLASS
  1
PLOTSETTINGS
  2
AcDbPlotSettings
  3
AutoCAD 2000
 90
        0
280
     0
281
     0
  0
CLASS
  1
ACDBDICTIONARYWDFLT
  2
AcDbDictionaryWithDefault
  3
AutoCAD 2000
 90
        0
280
     0
281
     0
  0
CLASS
  1
ACDBPLACEHOLDER
  2
AcDbPlaceHolder
  3
AutoCAD 2000
 90
        0
280
     0
281
     0
  0
CLASS
  1
VBA_PROJECT
  2
AcDbVbaProject
  3
acadvba
 90
        0
280
     0
281
     0
  0
CLASS
  1
WIPEOUT
  2
AcDbWipeout
  3
WipeOut|AutoCAD Express Tool|expresstools@autodesk.com
 90
      127
280
     0
281
     1
  0
CLASS
  1
WIPEOUTVARIABLES
  2
AcDbWipeoutVariables
  3
WipeOut|AutoCAD Express Tool|expresstools@autodesk.com
 90
        0
280
     0
281
     0
  0
CLASS
  1
RTEXT
  2
RText
  3
RText|AutoCAD Express Tool|expresstools@autodesk.com
 90
        0
280
     0
281
     1
  0
CLASS
  1
ARCALIGNEDTEXT
  2
AcDbArcAlignedText
  3
ATEXT|AutoCAD Express Tool|expresstools@autodesk.com
 90
        0
280
     0
281
     1
  0
ENDSEC
  0
SECTION
  2
TABLES
  0
TABLE
  2
VPORT
  5
7
100
AcDbSymbolTable
 70
     2
  0
VPORT
  5
15
100
AcDbSymbolTableRecord
100
AcDbViewportTableRecord
  2
*ACTIVE
 70
     0
 10
0.0
 20
0.0
 11
1.0
 21
1.0
 12
6.591288
 22
4.579184
 13
0.0
 23
0.0
 14
1.0
 24
1.0
 15
0.0
 25
0.0
 16
0.0
 26
0.0
 36
1.0
 17
0.0
 27
0.0
 37
0.0
 40
9.158369
 41
0.688564
 42
50.0
 43
0.0
 44
0.0
 50
0.0
 51
0.0
 71
     0
 72
   100
 73
     1
 74
     1
 75
     0
 76
     0
 77
     0
 78
     0
281
     0
 65
     0
110
0.0
120
0.0
130
0.0
111
1.0
121
0.0
131
0.0
112
0.0
122
1.0
132
0.0
345
0
346
0
 79
     0
146
0.0
  0
VPORT
  5
359
100
AcDbSymbolTableRecord
100
AcDbViewportTableRecord
  2
MYVPORT
 70
     0
 10
0.0
 20
0.0
 11
1.0
 21
1.0
 12
6.21
 22
9.02
 13
0.0
 23
0.0
 14
1.0
 24
1.0
 15
0.0
 25
0.0
 16
0.0
 26
0.0
 36
1.0
 17
0.0
 27
0.0
 37
0.0
 40
18.04
 41
0.688564
 42
50.0
 43
0.0
 44
0.0
 50
0.0
 51
0.0
 71
     0
 72
   100
 73
     1
 74
     1
 75
     0
 76
     0
 77
     0
 78
     0
281
     0
 65
     0
110
0.0
120
0.0
130
0.0
111
1.0
121
0.0
131
0.0
112
0.0
122
1.0
132
0.0
345
0
346
0
 79
     0
146
0.0
  0
ENDTAB
  0
TABLE
  2
LTYPE
  5
4
100
AcDbSymbolTable
 70
     8
  0
LTYPE
  5
11
100
AcDbSymbolTableRecord
100
AcDbLinetypeTableRecord
  2
ByBlock
 70
    64
  3

 72
    65
 73
     0
 40
0.0
  0
LTYPE
  5
12
100
AcDbSymbolTableRecord
100
AcDbLinetypeTableRecord
  2
ByLayer
 70
    64
  3

 72
    65
 73
     0
 40
0.0
  0
LTYPE
  5
13
100
AcDbSymbolTableRecord
100
AcDbLinetypeTableRecord
  2
Continuous
 70
    64
  3
Solid line
 72
    65
 73
     0
 40
0.0
  0
LTYPE
  5
24
100
AcDbSymbolTableRecord
100
AcDbLinetypeTableRecord
  2
DOT
 70
    64
  3
Visual CADD Translation
 72
    65
 73
     2
 40
0.1
 49
0.0
 74
     0
 49
-0.1
 74
     0
  0
LTYPE
  5
2C
100
AcDbSymbolTableRecord
100
AcDbLinetypeTableRecord
  2
DASHDOT
 70
    64
  3
Visual CADD Translation
 72
    65
 73
     4
 40
1.0
 49
0.6
 74
     0
 49
-0.2
 74
     0
 49
0.0
 74
     0
 49
-0.2
 74
     0
  0
LTYPE
  5
32
100
AcDbSymbolTableRecord
100
AcDbLinetypeTableRecord
  2
CENTER
 70
    64
  3
Visual CADD Translation
 72
    65
 73
     4
 40
1.265
 49
0.115
 74
     0
 49
-0.07
 74
     0
 49
1.01
 74
     0
 49
-0.07
 74
     0
  0
LTYPE
  5
9B
100
AcDbSymbolTableRecord
100
AcDbLinetypeTableRecord
  2
REALLY_WIDE_DOT
 70
    64
  3
Visual CADD Translation
 72
    65
 73
     2
 40
0.75
 49
0.0
 74
     0
 49
-0.75
 74
     0
  0
LTYPE
  5
BF
100
AcDbSymbolTableRecord
100
AcDbLinetypeTableRecord
  2
DASHED
 70
    64
  3
Visual CADD Translation
 72
    65
 73
     2
 40
0.32
 49
0.24
 74
     0
 49
-0.08
 74
     0
  0
ENDTAB
  0
TABLE
  2
LAYER
  5
2
100
AcDbSymbolTable
 70
    21
  0
LAYER
  5
14
100
AcDbSymbolTableRecord
100
AcDbLayerTableRecord
  2
0
 70
     0
 62
     7
  6
Continuous
290
     1
370
    -3
390
1D
  0
LAYER
  5
25
100
AcDbSymbolTableRecord
100
AcDbLayerTableRecord
  2
hidden positions
 70
     0
 62
    54
  6
DOT
290
     1
370
    -3
390
1D
  0
LAYER
  5
26
100
AcDbSymbolTableRecord
100
AcDbLayerTableRecord
  2
revealed positions
 70
     0
 62
    94
  6
Continuous
290
     1
370
    -3
390
1D
  0
LAYER
  5
27
100
AcDbSymbolTableRecord
100
AcDbLayerTableRecord
  2
lamps
 70
     0
 62
     7
  6
Continuous
290
     1
370
    -3
390
1D
  0
LAYER
  5
28
100
AcDbSymbolTableRecord
100
AcDbLayerTableRecord
  2
hashmarks
 70
     0
 62
    54
  6
DOT
290
     1
370
    -3
390
1D
  0
LAYER
  5
29
100
AcDbSymbolTableRecord
100
AcDbLayerTableRecord
  2
legend
 70
     0
 62
     7
  6
Continuous
290
     1
370
    -3
390
1D
  0
LAYER
  5
2A
100
AcDbSymbolTableRecord
100
AcDbLayerTableRecord
  2
seating
 70
     0
 62
     7
  6
Continuous
290
     1
370
    -3
390
1D
  0
LAYER
  5
2B
100
AcDbSymbolTableRecord
100
AcDbLayerTableRecord
  2
Title Block
 70
     0
 62
     7
  6
Continuous
290
     1
370
    -3
390
1D
  0
LAYER
  5
2D
100
AcDbSymbolTableRecord
100
AcDbLayerTableRecord
  2
middle position
 70
     0
 62
   134
  6
DASHDOT
290
     1
370
    -3
390
1D
  0
LAYER
  5
2E
100
AcDbSymbolTableRecord
100
AcDbLayerTableRecord
  2
notes
 70
     0
 62
     7
  6
Continuous
290
     1
370
    -3
390
1D
  0
LAYER
  5
2F
100
AcDbSymbolTableRecord
100
AcDbLayerTableRecord
  2
Booms
 70
     0
 62
     7
  6
Continuous
290
     1
370
    -3
390
1D
  0
LAYER
  5
30
100
AcDbSymbolTableRecord
100
AcDbLayerTableRecord
  2
border
 70
     0
 62
     7
  6
Continuous
290
     1
370
    -3
390
1D
  0
LAYER
  5
31
100
AcDbSymbolTableRecord
100
AcDbLayerTableRecord
  2
area centers
 70
     0
 62
   214
  6
Continuous
290
     1
370
    -3
390
1D
  0
LAYER
  5
33
100
AcDbSymbolTableRecord
100
AcDbLayerTableRecord
  2
centerline
 70
     0
 62
     1
  6
CENTER
290
     1
370
    -3
390
1D
  0
LAYER
  5
34
100
AcDbSymbolTableRecord
100
AcDbLayerTableRecord
  2
available circuits
 70
     0
 62
    54
  6
Continuous
290
     1
370
    -3
390
1D
  0
LAYER
  5
35
100
AcDbSymbolTableRecord
100
AcDbLayerTableRecord
  2
unavailable circuits
 70
     0
 62
   251
  6
Continuous
290
     1
370
    -3
390
1D
  0
LAYER
  5
36
100
AcDbSymbolTableRecord
100
AcDbLayerTableRecord
  2
electrician
 70
     0
 62
     7
  6
Continuous
290
     1
370
    -3
390
1D
  0
LAYER
  5
37
100
AcDbSymbolTableRecord
100
AcDbLayerTableRecord
  2
designer
 70
     0
 62
     7
  6
Continuous
290
     1
370
    -3
390
1D
  0
LAYER
  5
38
100
AcDbSymbolTableRecord
100
AcDbLayerTableRecord
  2
draft
 70
     0
 62
     7
  6
Continuous
290
     1
370
    -3
390
1D
  0
LAYER
  5
39
100
AcDbSymbolTableRecord
100
AcDbLayerTableRecord
  2
set
 70
     0
 62
     7
  6
Continuous
290
     1
370
    -3
390
1D
  0
LAYER
  5
3A
100
AcDbSymbolTableRecord
100
AcDbLayerTableRecord
  2
final
 70
     0
 62
     7
  6
Continuous
290
     1
370
    -3
390
1D
  0
ENDTAB
  0
TABLE
  2
STYLE
  5
3
100
AcDbSymbolTable
 70
     3
  0
STYLE
  5
17
100
AcDbSymbolTableRecord
100
AcDbTextStyleTableRecord
  2
Standard
 70
     0
 40
0.0
 41
1.0
 50
0.0
 71
     0
 42
0.0
  3
txt
  4

  0
STYLE
  5
42
100
AcDbSymbolTableRecord
100
AcDbTextStyleTableRecord
  2
Vcadd_ENGINEER
 70
     0
 40
0.0
 41
1.0
 50
0.0
 71
     0
 42
0.0
  3
ENGINEER
  4

  0
STYLE
  5
89
100
AcDbSymbolTableRecord
100
AcDbTextStyleTableRecord
  2
Vcadd_HandPrnt
 70
     0
 40
0.0
 41
1.0
 50
0.0
 71
     0
 42
0.0
  3
HandPrnt
  4

  0
ENDTAB
  0
TABLE
  2
VIEW
  5
5
100
AcDbSymbolTable
 70
     0
  0
ENDTAB
  0
TABLE
  2
UCS
  5
6
100
AcDbSymbolTable
 70
     1
  0
UCS
  5
358
100
AcDbSymbolTableRecord
100
AcDbUCSTableRecord
  2
MYUCS
 70
     0
 10
0.0
 20
0.0
 30
0.0
 11
0.0
 21
1.0
 31
0.0
 12
0.0
 22
0.0
 32
1.0
 79
     0
146
0.0
  0
ENDTAB
  0
TABLE
  2
APPID
  5
8
100
AcDbSymbolTable
 70
     1
  0
APPID
  5
16
100
AcDbSymbolTableRecord
100
AcDbRegAppTableRecord
  2
ACAD
 70
     0
  0
ENDTAB
  0
TABLE
  2
DIMSTYLE
  5
9
100
AcDbSymbolTable
 70
     2
100
AcDbDimStyleTable
 71
     0
  0
DIMSTYLE
105
18
100
AcDbSymbolTableRecord
100
AcDbDimStyleTableRecord
  2
Standard
 70
     0
  3

  4

 40
1.0
 41
0.18
 42
0.0625
 43
0.38
 44
0.18
 45
0.0
 46
0.0
 47
0.0
 48
0.0
 71
     0
 72
     0
 73
     1
 74
     1
 75
     0
 76
     0
 77
     0
 78
     0
 79
     0
140
0.18
141
0.09
142
0.0
143
25.4
144
1.0
145
0.0
146
1.0
147
0.09
148
0.0
170
     0
171
     2
172
     0
173
     0
174
     0
175
     0
176
     0
177
     0
178
     0
179
     0
271
     4
272
     4
273
     2
274
     2
275
     0
276
     0
277
     2
278
    46
279
     0
280
     0
281
     0
282
     0
283
     1
284
     0
285
     0
286
     0
288
     0
289
     3
340
17
341
0
342
0
343
0
344
0
371
    -2
372
    -2
  0
DIMSTYLE
105
43
100
AcDbSymbolTableRecord
100
AcDbDimStyleTableRecord
  2
VCADD_DIMSTYLE
 70
     0
  3

  4

 40
1.0
 41
1.0
 42
0.2
 43
0.0
 44
0.2
 45
0.0
 46
0.0
 47
1.0
 48
1.0
 71
     0
 72
     0
 73
     0
 74
     1
 75
     0
 76
     0
 77
     0
 78
     3
 79
     0
140
3.0
141
0.0
142
0.0
143
25.4
144
1.0
145
0.0
146
1.0
147
0.2
148
0.0
170
     0
171
     0
172
     0
173
     0
174
     1
175
     0
176
     1
177
     1
178
     1
179
     0
271
     0
272
     4
273
     2
274
     2
275
     0
276
     0
277
     4
278
    46
279
     0
280
     0
281
     0
282
     0
283
     1
284
     0
285
     0
286
     0
288
     0
289
     3
340
42
341
0
342
0
343
0
344
0
371
    -2
372
    -2
  0
ENDTAB
  0
TABLE
  2
BLOCK_RECORD
  5
1
100
AcDbSymbolTable
 70
     8
  0
BLOCK_RECORD
  5
A
100
AcDbSymbolTableRecord
100
AcDbBlockTableRecord
  2
*MODEL_SPACE
340
20
  0
BLOCK_RECORD
  5
B
100
AcDbSymbolTableRecord
100
AcDbBlockTableRecord
  2
*PAPER_SPACE
340
21
  0
BLOCK_RECORD
  5
3B
100
AcDbSymbolTableRecord
100
AcDbBlockTableRecord
  2
_CLOSED
340
0
  0
BLOCK_RECORD
  5
105
100
AcDbSymbolTableRecord
100
AcDbBlockTableRecord
  2
quad box
340
0
102
{BLKREFS
331
148
331
149
331
14A
331
14B
331
16F
331
170
331
171
331
177
331
1C3
331
273
331
34A
331
34B
102
}
  0
BLOCK_RECORD
  5
15E
100
AcDbSymbolTableRecord
100
AcDbBlockTableRecord
  2
pipe slash
340
0
102
{BLKREFS
331
167
102
}
  0
BLOCK_RECORD
  5
18A
100
AcDbSymbolTableRecord
100
AcDbBlockTableRecord
  2
2FT_RULE
340
0
102
{BLKREFS
331
199
331
19A
331
19B
331
19C
331
19D
331
19E
331
19F
331
1A0
331
1A1
331
1A2
331
288
331
289
331
28A
331
28B
331
28C
331
28D
331
28E
331
28F
331
290
331
291
331
292
331
293
331
294
331
295
102
}
  0
BLOCK_RECORD
  5
1B2
100
AcDbSymbolTableRecord
100
AcDbBlockTableRecord
  2
houselight
340
0
102
{BLKREFS
331
1BD
331
1BE
331
1BF
102
}
  0
BLOCK_RECORD
  5
200
100
AcDbSymbolTableRecord
100
AcDbBlockTableRecord
  2
hanging position oval
340
0
102
{BLKREFS
331
26F
331
2BC
331
2BE
331
2C0
331
2C2
331
2C4
331
2C5
331
2C8
331
2CA
331
2CB
331
324
102
}
  0
BLOCK_RECORD
  5
2CF
100
AcDbSymbolTableRecord
100
AcDbBlockTableRecord
  2
centerline
340
0
102
{BLKREFS
331
323
102
}
  0
BLOCK_RECORD
  5
331
100
AcDbSymbolTableRecord
100
AcDbBlockTableRecord
  2
arrwhead
340
0
102
{BLKREFS
331
33B
102
}
  0
ENDTAB
  0
ENDSEC
  0
SECTION
  2
BLOCKS
  0
BLOCK
  5
D
100
AcDbEntity
  8
0
390
0
100
AcDbBlockBegin
  2
*MODEL_SPACE
 70
     0
 10
0.0
 20
0.0
 30
0.0
  3
*MODEL_SPACE
  1

  0
ENDBLK
  5
E
100
AcDbEntity
  8
0
390
0
100
AcDbBlockEnd
  0
BLOCK
  5
F
100
AcDbEntity
 67
     1
  8
0
390
0
100
AcDbBlockBegin
  2
*PAPER_SPACE
 70
     0
 10
0.0
 20
0.0
 30
0.0
  3
*PAPER_SPACE
  1

  0
ENDBLK
  5
10
100
AcDbEntity
 67
     1
  8
0
390
0
100
AcDbBlockEnd
  0
BLOCK
  5
3C
100
AcDbEntity
  8
0
390
0
100
AcDbBlockBegin
  2
_CLOSED
 70
     0
 10
0.0
 20
0.0
 30
0.0
  3
_CLOSED
  1

  0
LINE
  5
3D
100
AcDbEntity
  8
0
370
    -2
390
0
  6
ByBlock
 62
     0
100
AcDbLine
 10
-1.0
 20
0.166667
 30
0.0
 11
0.0
 21
0.0
 31
0.0
  0
LINE
  5
3E
100
AcDbEntity
  8
0
370
    -2
390
0
  6
ByBlock
 62
     0
100
AcDbLine
 10
0.0
 20
0.0
 30
0.0
 11
-1.0
 21
-0.166667
 31
0.0
  0
LINE
  5
3F
100
AcDbEntity
  8
0
370
    -2
390
0
  6
ByBlock
 62
     0
100
AcDbLine
 10
-1.0
 20
0.166667
 30
0.0
 11
-1.0
 21
-0.166667
 31
0.0
  0
LINE
  5
40
100
AcDbEntity
  8
0
370
    -2
390
0
  6
ByBlock
 62
     0
100
AcDbLine
 10
0.0
 20
0.0
 30
0.0
 11
-1.0
 21
0.0
 31
0.0
  0
ENDBLK
  5
41
100
AcDbEntity
  8
0
390
0
100
AcDbBlockEnd
  0
BLOCK
  5
106
100
AcDbEntity
  8
0
390
0
100
AcDbBlockBegin
  2
quad box
 70
     0
 10
0.0
 20
0.0
 30
0.0
  3
quad box
  1

  0
LINE
  5
107
100
AcDbEntity
  8
0
370
     0
390
0
  6
Continuous
 62
     7
100
AcDbLine
 10
2.0
 20
0.0
 30
0.0
 11
2.0
 21
1.0
 31
0.0
  0
LINE
  5
108
100
AcDbEntity
  8
0
370
     0
390
0
  6
Continuous
 62
     7
100
AcDbLine
 10
1.0
 20
2.0
 30
0.0
 11
0.0
 21
2.0
 31
0.0
  0
ARC
  5
109
100
AcDbEntity
  8
0
370
     0
390
0
  6
Continuous
 62
     7
100
AcDbCircle
 10
1.0
 20
1.0
 30
0.0
 40
1.0
100
AcDbArc
 50
360.0
 51
450.0
  0
LINE
  5
10A
100
AcDbEntity
  8
0
370
     0
390
0
  6
Continuous
 62
     7
100
AcDbLine
 10
0.0
 20
2.0
 30
0.0
 11
-1.0
 21
2.0
 31
0.0
  0
LINE
  5
10B
100
AcDbEntity
  8
0
370
     0
390
0
  6
Continuous
 62
     7
100
AcDbLine
 10
-2.0
 20
1.0
 30
0.0
 11
-2.0
 21
0.0
 31
0.0
  0
ARC
  5
10C
100
AcDbEntity
  8
0
370
     0
390
0
  6
Continuous
 62
     7
100
AcDbCircle
 10
-1.0
 20
1.0
 30
0.0
 40
1.0
100
AcDbArc
 50
90.0
 51
180.0
  0
LINE
  5
10D
100
AcDbEntity
  8
0
370
     0
390
0
  6
Continuous
 62
     7
100
AcDbLine
 10
-2.0
 20
0.0
 30
0.0
 11
-2.0
 21
-1.0
 31
0.0
  0
LINE
  5
10E
100
AcDbEntity
  8
0
370
     0
390
0
  6
Continuous
 62
     7
100
AcDbLine
 10
-1.0
 20
-2.0
 30
0.0
 11
0.0
 21
-2.0
 31
0.0
  0
ARC
  5
10F
100
AcDbEntity
  8
0
370
     0
390
0
  6
Continuous
 62
     7
100
AcDbCircle
 10
-1.0
 20
-1.0
 30
0.0
 40
1.0
100
AcDbArc
 50
180.0
 51
270.0
  0
LINE
  5
110
100
AcDbEntity
  8
0
370
     0
390
0
  6
Continuous
 62
     7
100
AcDbLine
 10
0.0
 20
-2.0
 30
0.0
 11
1.0
 21
-2.0
 31
0.0
  0
LINE
  5
111
100
AcDbEntity
  8
0
370
     0
390
0
  6
Continuous
 62
     7
100
AcDbLine
 10
2.0
 20
-1.0
 30
0.0
 11
2.0
 21
0.0
 31
0.0
  0
ARC
  5
112
100
AcDbEntity
  8
0
370
     0
390
0
  6
Continuous
 62
     7
100
AcDbCircle
 10
1.0
 20
-1.0
 30
0.0
 40
1.0
100
AcDbArc
 50
270.0
 51
360.0
  0
LINE
  5
113
100
AcDbEntity
  8
0
370
     0
390
0
  6
Continuous
 62
     7
100
AcDbLine
 10
-0.25
 20
1.0
 30
0.0
 11
-0.25
 21
1.375
 31
0.0
  0
LINE
  5
114
100
AcDbEntity
  8
0
370
     0
390
0
  6
Continuous
 62
     7
100
AcDbLine
 10
-0.25
 20
-1.0
 30
0.0
 11
-0.25
 21
-1.375
 31
0.0
  0
LINE
  5
115
100
AcDbEntity
  8
0
370
     0
390
0
  6
Continuous
 62
     7
100
AcDbLine
 10
0.25
 20
1.0
 30
0.0
 11
0.25
 21
1.375
 31
0.0
  0
LINE
  5
116
100
AcDbEntity
  8
0
370
     0
390
0
  6
Continuous
 62
     7
100
AcDbLine
 10
0.25
 20
-1.0
 30
0.0
 11
0.25
 21
-1.375
 31
0.0
  0
LINE
  5
117
100
AcDbEntity
  8
0
370
     0
390
0
  6
Continuous
 62
     7
100
AcDbLine
 10
-0.375
 20
1.5
 30
0.0
 11
-1.125
 21
1.5
 31
0.0
  0
LINE
  5
118
100
AcDbEntity
  8
0
370
     0
390
0
  6
Continuous
 62
     7
100
AcDbLine
 10
-0.375
 20
-1.5
 30
0.0
 11
-1.125
 21
-1.5
 31
0.0
  0
LINE
  5
119
100
AcDbEntity
  8
0
370
     0
390
0
  6
Continuous
 62
     7
100
AcDbLine
 10
0.375
 20
1.5
 30
0.0
 11
1.125
 21
1.5
 31
0.0
  0
LINE
  5
11A
100
AcDbEntity
  8
0
370
     0
390
0
  6
Continuous
 62
     7
100
AcDbLine
 10
0.375
 20
-1.5
 30
0.0
 11
1.125
 21
-1.5
 31
0.0
  0
ARC
  5
11B
100
AcDbEntity
  8
0
370
     0
390
0
  6
Continuous
 62
     7
100
AcDbCircle
 10
-0.375
 20
1.375
 30
0.0
 40
0.125
100
AcDbArc
 50
360.0
 51
450.0
  0
ARC
  5
11C
100
AcDbEntity
  8
0
370
     0
390
0
  6
Continuous
 62
     7
100
AcDbCircle
 10
-0.375
 20
-1.375
 30
0.0
 40
0.125
100
AcDbArc
 50
270.0
 51
360.0
  0
ARC
  5
11D
100
AcDbEntity
  8
0
370
     0
390
0
  6
Continuous
 62
     7
100
AcDbCircle
 10
0.375
 20
1.375
 30
0.0
 40
0.125
100
AcDbArc
 50
90.0
 51
180.0
  0
ARC
  5
11E
100
AcDbEntity
  8
0
370
     0
390
0
  6
Continuous
 62
     7
100
AcDbCircle
 10
0.375
 20
-1.375
 30
0.0
 40
0.125
100
AcDbArc
 50
180.0
 51
270.0
  0
LINE
  5
11F
100
AcDbEntity
  8
0
370
     0
390
0
  6
Continuous
 62
     7
100
AcDbLine
 10
-1.25
 20
1.375
 30
0.0
 11
-1.25
 21
0.625
 31
0.0
  0
LINE
  5
120
100
AcDbEntity
  8
0
370
     0
390
0
  6
Continuous
 62
     7
100
AcDbLine
 10
-1.25
 20
-1.375
 30
0.0
 11
-1.25
 21
-0.625
 31
0.0
  0
LINE
  5
121
100
AcDbEntity
  8
0
370
     0
390
0
  6
Continuous
 62
     7
100
AcDbLine
 10
1.25
 20
1.375
 30
0.0
 11
1.25
 21
0.625
 31
0.0
  0
LINE
  5
122
100
AcDbEntity
  8
0
370
     0
390
0
  6
Continuous
 62
     7
100
AcDbLine
 10
1.25
 20
-1.375
 30
0.0
 11
1.25
 21
-0.625
 31
0.0
  0
ARC
  5
123
100
AcDbEntity
  8
0
370
     0
390
0
  6
Continuous
 62
     7
100
AcDbCircle
 10
-1.125
 20
1.375
 30
0.0
 40
0.125
100
AcDbArc
 50
90.0
 51
180.0
  0
ARC
  5
124
100
AcDbEntity
  8
0
370
     0
390
0
  6
Continuous
 62
     7
100
AcDbCircle
 10
-1.125
 20
-1.375
 30
0.0
 40
0.125
100
AcDbArc
 50
180.0
 51
270.0
  0
ARC
  5
125
100
AcDbEntity
  8
0
370
     0
390
0
  6
Continuous
 62
     7
100
AcDbCircle
 10
1.125
 20
1.375
 30
0.0
 40
0.125
100
AcDbArc
 50
360.0
 51
450.0
  0
ARC
  5
126
100
AcDbEntity
  8
0
370
     0
390
0
  6
Continuous
 62
     7
100
AcDbCircle
 10
1.125
 20
-1.375
 30
0.0
 40
0.125
100
AcDbArc
 50
270.0
 51
360.0
  0
LINE
  5
127
100
AcDbEntity
  8
0
370
     0
390
0
  6
Continuous
 62
     7
100
AcDbLine
 10
-1.125
 20
0.5
 30
0.0
 11
-0.375
 21
0.5
 31
0.0
  0
LINE
  5
128
100
AcDbEntity
  8
0
370
     0
390
0
  6
Continuous
 62
     7
100
AcDbLine
 10
-1.125
 20
-0.5
 30
0.0
 11
-0.375
 21
-0.5
 31
0.0
  0
LINE
  5
129
100
AcDbEntity
  8
0
370
     0
390
0
  6
Continuous
 62
     7
100
AcDbLine
 10
1.125
 20
0.5
 30
0.0
 11
0.375
 21
0.5
 31
0.0
  0
LINE
  5
12A
100
AcDbEntity
  8
0
370
     0
390
0
  6
Continuous
 62
     7
100
AcDbLine
 10
1.125
 20
-0.5
 30
0.0
 11
0.375
 21
-0.5
 31
0.0
  0
ARC
  5
12B
100
AcDbEntity
  8
0
370
     0
390
0
  6
Continuous
 62
     7
100
AcDbCircle
 10
-1.125
 20
0.625
 30
0.0
 40
0.125
100
AcDbArc
 50
180.0
 51
270.0
  0
ARC
  5
12C
100
AcDbEntity
  8
0
370
     0
390
0
  6
Continuous
 62
     7
100
AcDbCircle
 10
-1.125
 20
-0.625
 30
0.0
 40
0.125
100
AcDbArc
 50
90.0
 51
180.0
  0
ARC
  5
12D
100
AcDbEntity
  8
0
370
     0
390
0
  6
Continuous
 62
     7
100
AcDbCircle
 10
1.125
 20
0.625
 30
0.0
 40
0.125
100
AcDbArc
 50
270.0
 51
360.0
  0
ARC
  5
12E
100
AcDbEntity
  8
0
370
     0
390
0
  6
Continuous
 62
     7
100
AcDbCircle
 10
1.125
 20
-0.625
 30
0.0
 40
0.125
100
AcDbArc
 50
360.0
 51
450.0
  0
LINE
  5
12F
100
AcDbEntity
  8
0
370
     0
390
0
  6
Continuous
 62
     7
100
AcDbLine
 10
-0.25
 20
0.625
 30
0.0
 11
-0.25
 21
1.0
 31
0.0
  0
LINE
  5
130
100
AcDbEntity
  8
0
370
     0
390
0
  6
Continuous
 62
     7
100
AcDbLine
 10
-0.25
 20
-0.625
 30
0.0
 11
-0.25
 21
-1.0
 31
0.0
  0
LINE
  5
131
100
AcDbEntity
  8
0
370
     0
390
0
  6
Continuous
 62
     7
100
AcDbLine
 10
0.25
 20
0.625
 30
0.0
 11
0.25
 21
1.0
 31
0.0
  0
LINE
  5
132
100
AcDbEntity
  8
0
370
     0
390
0
  6
Continuous
 62
     7
100
AcDbLine
 10
0.25
 20
-0.625
 30
0.0
 11
0.25
 21
-1.0
 31
0.0
  0
ARC
  5
133
100
AcDbEntity
  8
0
370
     0
390
0
  6
Continuous
 62
     7
100
AcDbCircle
 10
-0.375
 20
0.625
 30
0.0
 40
0.125
100
AcDbArc
 50
270.0
 51
360.0
  0
ARC
  5
134
100
AcDbEntity
  8
0
370
     0
390
0
  6
Continuous
 62
     7
100
AcDbCircle
 10
-0.375
 20
-0.625
 30
0.0
 40
0.125
100
AcDbArc
 50
360.0
 51
450.0
  0
ARC
  5
135
100
AcDbEntity
  8
0
370
     0
390
0
  6
Continuous
 62
     7
100
AcDbCircle
 10
0.375
 20
0.625
 30
0.0
 40
0.125
100
AcDbArc
 50
180.0
 51
270.0
  0
ARC
  5
136
100
AcDbEntity
  8
0
370
     0
390
0
  6
Continuous
 62
     7
100
AcDbCircle
 10
0.375
 20
-0.625
 30
0.0
 40
0.125
100
AcDbArc
 50
90.0
 51
180.0
  0
LINE
  5
137
100
AcDbEntity
  8
0
370
    40
390
0
  6
Continuous
 62
     7
100
AcDbLine
 10
-1.07009
 20
0.75
 30
0.0
 11
-0.69509
 21
0.75
 31
0.0
  0
LINE
  5
138
100
AcDbEntity
  8
0
370
    40
390
0
  6
Continuous
 62
     7
100
AcDbLine
 10
-1.07009
 20
-0.75
 30
0.0
 11
-0.69509
 21
-0.75
 31
0.0
  0
LINE
  5
139
100
AcDbEntity
  8
0
370
    40
390
0
  6
Continuous
 62
     7
100
AcDbLine
 10
0.42991
 20
0.75
 30
0.0
 11
0.80491
 21
0.75
 31
0.0
  0
LINE
  5
13A
100
AcDbEntity
  8
0
370
    40
390
0
  6
Continuous
 62
     7
100
AcDbLine
 10
0.42991
 20
-0.75
 30
0.0
 11
0.80491
 21
-0.75
 31
0.0
  0
LINE
  5
13B
100
AcDbEntity
  8
0
370
    40
390
0
  6
Continuous
 62
     7
100
AcDbLine
 10
-1.07009
 20
1.25
 30
0.0
 11
-0.69509
 21
1.25
 31
0.0
  0
LINE
  5
13C
100
AcDbEntity
  8
0
370
    40
390
0
  6
Continuous
 62
     7
100
AcDbLine
 10
-1.07009
 20
-1.25
 30
0.0
 11
-0.69509
 21
-1.25
 31
0.0
  0
LINE
  5
13D
100
AcDbEntity
  8
0
370
    40
390
0
  6
Continuous
 62
     7
100
AcDbLine
 10
0.42991
 20
1.25
 30
0.0
 11
0.80491
 21
1.25
 31
0.0
  0
LINE
  5
13E
100
AcDbEntity
  8
0
370
    40
390
0
  6
Continuous
 62
     7
100
AcDbLine
 10
0.42991
 20
-1.25
 30
0.0
 11
0.80491
 21
-1.25
 31
0.0
  0
CIRCLE
  5
13F
100
AcDbEntity
  8
0
370
     0
390
0
  6
Continuous
 62
     7
100
AcDbCircle
 10
-0.483331
 20
1.0
 30
0.0
 40
0.0625
  0
CIRCLE
  5
140
100
AcDbEntity
  8
0
370
     0
390
0
  6
Continuous
 62
     7
100
AcDbCircle
 10
-0.483331
 20
-1.0
 30
0.0
 40
0.0625
  0
CIRCLE
  5
141
100
AcDbEntity
  8
0
370
     0
390
0
  6
Continuous
 62
     7
100
AcDbCircle
 10
1.016669
 20
1.0
 30
0.0
 40
0.0625
  0
CIRCLE
  5
142
100
AcDbEntity
  8
0
370
     0
390
0
  6
Continuous
 62
     7
100
AcDbCircle
 10
1.016669
 20
-1.0
 30
0.0
 40
0.0625
  0
HATCH
  5
143
100
AcDbEntity
  8
0
370
     0
390
0
  6
Continuous
 62
   134
100
AcDbHatch
 10
0.0
 20
0.0
 30
0.0
210
0.0
220
0.0
230
1.0
  2
SOLID
 70
     1
 71
     0
 91
        1
 92
        1
 93
        1
 72
     2
 10
-0.4833305753238619
 20
1.0
 40
0.0625
 50
0.0
 51
360.0
 73
     1
 97
        0
 75
     0
 76
     1
 98
        1
 10
0.0
 20
0.0
  0
HATCH
  5
144
100
AcDbEntity
  8
0
370
     0
390
0
  6
Continuous
 62
   134
100
AcDbHatch
 10
0.0
 20
0.0
 30
0.0
210
0.0
220
0.0
230
1.0
  2
SOLID
 70
     1
 71
     0
 91
        1
 92
        1
 93
        1
 72
     2
 10
-0.4833305753238619
 20
-1.0
 40
0.0625
 50
0.0
 51
360.0
 73
     1
 97
        0
 75
     0
 76
     1
 98
        1
 10
0.0
 20
0.0
  0
HATCH
  5
145
100
AcDbEntity
  8
0
370
     0
390
0
  6
Continuous
 62
   134
100
AcDbHatch
 10
0.0
 20
0.0
 30
0.0
210
0.0
220
0.0
230
1.0
  2
SOLID
 70
     1
 71
     0
 91
        1
 92
        1
 93
        1
 72
     2
 10
1.0166694246761381
 20
1.0
 40
0.0625
 50
0.0
 51
360.0
 73
     1
 97
        0
 75
     0
 76
     1
 98
        1
 10
0.0
 20
0.0
  0
HATCH
  5
146
100
AcDbEntity
  8
0
370
     0
390
0
  6
Continuous
 62
   134
100
AcDbHatch
 10
0.0
 20
0.0
 30
0.0
210
0.0
220
0.0
230
1.0
  2
SOLID
 70
     1
 71
     0
 91
        1
 92
        1
 93
        1
 72
     2
 10
1.0166694246761381
 20
-1.0
 40
0.0625
 50
0.0
 51
360.0
 73
     1
 97
        0
 75
     0
 76
     1
 98
        1
 10
0.0
 20
0.0
  0
ENDBLK
  5
147
100
AcDbEntity
  8
0
390
0
100
AcDbBlockEnd
  0
BLOCK
  5
15F
100
AcDbEntity
  8
0
390
0
100
AcDbBlockBegin
  2
pipe slash
 70
     0
 10
0.0
 20
0.0
 30
0.0
  3
pipe slash
  1

  0
LINE
  5
160
100
AcDbEntity
  8
0
370
     0
390
0
  6
Continuous
 62
     1
100
AcDbLine
 10
0.0
 20
0.0
 30
0.0
 11
1.5
 21
0.0
 31
0.0
  0
LINE
  5
161
100
AcDbEntity
  8
0
370
     0
390
0
  6
Continuous
 62
     1
100
AcDbLine
 10
0.0
 20
0.0
 30
0.0
 11
-1.5
 21
0.0
 31
0.0
  0
LINE
  5
162
100
AcDbEntity
  8
0
370
     0
390
0
  6
Continuous
 62
     1
100
AcDbLine
 10
-1.5
 20
0.0
 30
0.0
 11
-0.178142
 21
-0.308551
 31
0.0
  0
LINE
  5
163
100
AcDbEntity
  8
0
370
     0
390
0
  6
Continuous
 62
     1
100
AcDbLine
 10
1.5
 20
0.0
 30
0.0
 11
0.178142
 21
0.308551
 31
0.0
  0
LINE
  5
164
100
AcDbEntity
  8
0
370
     0
390
0
  6
Continuous
 62
     1
100
AcDbLine
 10
0.178142
 20
0.308551
 30
0.0
 11
3.866252
 21
6.696545
 31
0.0
  0
LINE
  5
165
100
AcDbEntity
  8
0
370
     0
390
0
  6
Continuous
 62
     1
100
AcDbLine
 10
-0.178142
 20
-0.308551
 30
0.0
 11
-3.232051
 21
-5.598076
 31
0.0
  0
ENDBLK
  5
166
100
AcDbEntity
  8
0
390
0
100
AcDbBlockEnd
  0
BLOCK
  5
18B
100
AcDbEntity
  8
0
390
0
100
AcDbBlockBegin
  2
2FT_RULE
 70
     0
 10
0.0
 20
0.0
 30
0.0
  3
2FT_RULE
  1

  0
LINE
  5
18C
100
AcDbEntity
  8
revealed positions
370
     0
390
0
  6
Continuous
 62
     3
100
AcDbLine
 10
10.5
 20
9.0
 30
0.0
 11
10.411612
 21
9.088388
 31
0.0
  0
LINE
  5
18D
100
AcDbEntity
  8
revealed positions
370
     0
390
0
  6
Continuous
 62
     3
100
AcDbLine
 10
10.5
 20
9.0
 30
0.0
 11
10.411612
 21
8.911612
 31
0.0
  0
LINE
  5
18E
100
AcDbEntity
  8
revealed positions
370
     0
390
0
  6
Continuous
 62
     3
100
AcDbLine
 10
13.5
 20
9.0
 30
0.0
 11
13.588388
 21
9.088388
 31
0.0
  0
LINE
  5
18F
100
AcDbEntity
  8
revealed positions
370
     0
390
0
  6
Continuous
 62
     3
100
AcDbLine
 10
13.5
 20
9.0
 30
0.0
 11
13.588388
 21
8.911612
 31
0.0
  0
LINE
  5
190
100
AcDbEntity
  8
revealed positions
370
     0
390
0
  6
Continuous
 62
     3
100
AcDbLine
 10
12.0
 20
9.0
 30
0.0
 11
11.911612
 21
8.911612
 31
0.0
  0
LINE
  5
191
100
AcDbEntity
  8
revealed positions
370
     0
390
0
  6
Continuous
 62
     3
100
AcDbLine
 10
12.0
 20
9.0
 30
0.0
 11
12.088388
 21
8.911612
 31
0.0
  0
LINE
  5
192
100
AcDbEntity
  8
revealed positions
370
     0
390
0
  6
Continuous
 62
     7
100
AcDbLine
 10
24.0
 20
0.0
 30
0.0
 11
24.0
 21
12.0
 31
0.0
  0
LINE
  5
193
100
AcDbEntity
  8
revealed positions
370
     0
390
0
  6
Continuous
 62
     7
100
AcDbLine
 10
12.0
 20
0.0
 30
0.0
 11
12.0
 21
6.0
 31
0.0
  0
LINE
  5
194
100
AcDbEntity
  8
revealed positions
370
     0
390
0
  6
Continuous
 62
     7
100
AcDbLine
 10
6.0
 20
0.0
 30
0.0
 11
6.0
 21
3.0
 31
0.0
  0
LINE
  5
195
100
AcDbEntity
  8
revealed positions
370
     0
390
0
  6
Continuous
 62
     7
100
AcDbLine
 10
18.0
 20
0.0
 30
0.0
 11
18.0
 21
3.0
 31
0.0
  0
LINE
  5
196
100
AcDbEntity
  8
revealed positions
370
     0
390
0
  6
Continuous
 62
     7
100
AcDbLine
 10
0.0
 20
0.0
 30
0.0
 11
24.0
 21
0.0
 31
0.0
  0
LINE
  5
197
100
AcDbEntity
  8
revealed positions
370
     0
390
0
  6
Continuous
 62
     5
100
AcDbLine
 10
12.034855
 20
7.0
 30
0.0
 11
12.034855
 21
7.0
 31
0.0
  0
ENDBLK
  5
198
100
AcDbEntity
  8
0
390
0
100
AcDbBlockEnd
  0
BLOCK
  5
1B3
100
AcDbEntity
  8
0
390
0
100
AcDbBlockBegin
  2
houselight
 70
     0
 10
0.0
 20
0.0
 30
0.0
  3
houselight
  1

  0
LINE
  5
1B4
100
AcDbEntity
  8
revealed positions
370
     0
390
0
  6
DASHED
 62
     1
100
AcDbLine
 10
-8.559509
 20
-2.781153
 30
0.0
 11
-4.279754
 21
-1.390576
 31
0.0
  0
LINE
  5
1B5
100
AcDbEntity
  8
revealed positions
370
     0
390
0
  6
DASHED
 62
     1
100
AcDbLine
 10
-5.290067
 20
7.281153
 30
0.0
 11
-2.645034
 21
3.640576
 31
0.0
  0
LINE
  5
1B6
100
AcDbEntity
  8
revealed positions
370
     0
390
0
  6
DASHED
 62
     1
100
AcDbLine
 10
5.290067
 20
7.281153
 30
0.0
 11
2.645034
 21
3.640576
 31
0.0
  0
LINE
  5
1B7
100
AcDbEntity
  8
revealed positions
370
     0
390
0
  6
DASHED
 62
     1
100
AcDbLine
 10
8.559509
 20
-2.781153
 30
0.0
 11
4.279754
 21
-1.390576
 31
0.0
  0
LINE
  5
1B8
100
AcDbEntity
  8
revealed positions
370
     0
390
0
  6
DASHED
 62
     1
100
AcDbLine
 10
0.0
 20
-9.0
 30
0.0
 11
0.0
 21
-4.5
 31
0.0
  0
CIRCLE
  5
1B9
100
AcDbEntity
  8
revealed positions
370
     0
390
0
  6
DASHED
 62
     7
100
AcDbCircle
 10
0.0
 20
0.0
 30
0.0
 40
4.5
  0
LINE
  5
1BA
100
AcDbEntity
  8
revealed positions
370
     0
390
0
  6
DASHED
 62
     7
100
AcDbLine
 10
0.0
 20
-1.75
 30
0.0
 11
0.0
 21
-1.75
 31
0.0
  0
CIRCLE
  5
1BB
100
AcDbEntity
  8
revealed positions
370
     0
390
0
  6
DASHED
 62
     1
100
AcDbCircle
 10
0.0
 20
0.0
 30
0.0
 40
9.0
  0
ENDBLK
  5
1BC
100
AcDbEntity
  8
0
390
0
100
AcDbBlockEnd
  0
BLOCK
  5
201
100
AcDbEntity
  8
0
390
0
100
AcDbBlockBegin
  2
hanging position oval
 70
     0
 10
0.0
 20
0.0
 30
0.0
  3
hanging position oval
  1

  0
POLYLINE
  5
202
100
AcDbEntity
  8
lamps
370
    30
390
0
  6
Continuous
 62
    94
100
AcDb2dPolyline
 66
     1
 10
0.0
 20
0.0
 30
0.0
 70
     4
  0
VERTEX
  5
203
100
AcDbEntity
  8
lamps
370
    30
390
0
  6
Continuous
 62
    94
100
AcDbVertex
100
AcDb2dVertex
 10
-9.010773
 20
4.010447
 30
0.0
  0
VERTEX
  5
204
100
AcDbEntity
  8
lamps
370
    30
390
0
  6
Continuous
 62
    94
100
AcDbVertex
100
AcDb2dVertex
 10
-9.199144
 20
4.002554
 30
0.0
 70
     8
  0
VERTEX
  5
205
100
AcDbEntity
  8
lamps
370
    30
390
0
  6
Continuous
 62
    94
100
AcDbVertex
100
AcDb2dVertex
 10
-9.386772
 20
3.978906
 30
0.0
 70
     8
  0
VERTEX
  5
206
100
AcDbEntity
  8
lamps
370
    30
390
0
  6
Continuous
 62
    94
100
AcDbVertex
100
AcDb2dVertex
 10
-9.572916
 20
3.939597
 30
0.0
 70
     8
  0
VERTEX
  5
207
100
AcDbEntity
  8
lamps
370
    30
390
0
  6
Continuous
 62
    94
100
AcDbVertex
100
AcDb2dVertex
 10
-9.756841
 20
3.884781
 30
0.0
 70
     8
  0
VERTEX
  5
208
100
AcDbEntity
  8
lamps
370
    30
390
0
  6
Continuous
 62
    94
100
AcDbVertex
100
AcDb2dVertex
 10
-9.937822
 20
3.814675
 30
0.0
 70
     8
  0
VERTEX
  5
209
100
AcDbEntity
  8
lamps
370
    30
390
0
  6
Continuous
 62
    94
100
AcDbVertex
100
AcDb2dVertex
 10
-10.115144
 20
3.729555
 30
0.0
 70
     8
  0
VERTEX
  5
20A
100
AcDbEntity
  8
lamps
370
    30
390
0
  6
Continuous
 62
    94
100
AcDbVertex
100
AcDb2dVertex
 10
-10.288108
 20
3.629758
 30
0.0
 70
     8
  0
VERTEX
  5
20B
100
AcDbEntity
  8
lamps
370
    30
390
0
  6
Continuous
 62
    94
100
AcDbVertex
100
AcDb2dVertex
 10
-10.45603
 20
3.515677
 30
0.0
 70
     8
  0
VERTEX
  5
20C
100
AcDbEntity
  8
lamps
370
    30
390
0
  6
Continuous
 62
    94
100
AcDbVertex
100
AcDb2dVertex
 10
-10.618249
 20
3.387763
 30
0.0
 70
     8
  0
VERTEX
  5
20D
100
AcDbEntity
  8
lamps
370
    30
390
0
  6
Continuous
 62
    94
100
AcDbVertex
100
AcDb2dVertex
 10
-10.774124
 20
3.24652
 30
0.0
 70
     8
  0
VERTEX
  5
20E
100
AcDbEntity
  8
lamps
370
    30
390
0
  6
Continuous
 62
    94
100
AcDbVertex
100
AcDb2dVertex
 10
-10.92304
 20
3.092506
 30
0.0
 70
     8
  0
VERTEX
  5
20F
100
AcDbEntity
  8
lamps
370
    30
390
0
  6
Continuous
 62
    94
100
AcDbVertex
100
AcDb2dVertex
 10
-11.06441
 20
2.926328
 30
0.0
 70
     8
  0
VERTEX
  5
210
100
AcDbEntity
  8
lamps
370
    30
390
0
  6
Continuous
 62
    94
100
AcDbVertex
100
AcDb2dVertex
 10
-11.197674
 20
2.748643
 30
0.0
 70
     8
  0
VERTEX
  5
211
100
AcDbEntity
  8
lamps
370
    30
390
0
  6
Continuous
 62
    94
100
AcDbVertex
100
AcDb2dVertex
 10
-11.322308
 20
2.560152
 30
0.0
 70
     8
  0
VERTEX
  5
212
100
AcDbEntity
  8
lamps
370
    30
390
0
  6
Continuous
 62
    94
100
AcDbVertex
100
AcDb2dVertex
 10
-11.437819
 20
2.361598
 30
0.0
 70
     8
  0
VERTEX
  5
213
100
AcDbEntity
  8
lamps
370
    30
390
0
  6
Continuous
 62
    94
100
AcDbVertex
100
AcDb2dVertex
 10
-11.543752
 20
2.153765
 30
0.0
 70
     8
  0
VERTEX
  5
214
100
AcDbEntity
  8
lamps
370
    30
390
0
  6
Continuous
 62
    94
100
AcDbVertex
100
AcDb2dVertex
 10
-11.639689
 20
1.937473
 30
0.0
 70
     8
  0
VERTEX
  5
215
100
AcDbEntity
  8
lamps
370
    30
390
0
  6
Continuous
 62
    94
100
AcDbVertex
100
AcDb2dVertex
 10
-11.72525
 20
1.713577
 30
0.0
 70
     8
  0
VERTEX
  5
216
100
AcDbEntity
  8
lamps
370
    30
390
0
  6
Continuous
 62
    94
100
AcDbVertex
100
AcDb2dVertex
 10
-11.800099
 20
1.482959
 30
0.0
 70
     8
  0
VERTEX
  5
217
100
AcDbEntity
  8
lamps
370
    30
390
0
  6
Continuous
 62
    94
100
AcDbVertex
100
AcDb2dVertex
 10
-11.863939
 20
1.24653
 30
0.0
 70
     8
  0
VERTEX
  5
218
100
AcDbEntity
  8
lamps
370
    30
390
0
  6
Continuous
 62
    94
100
AcDbVertex
100
AcDb2dVertex
 10
-11.91652
 20
1.005222
 30
0.0
 70
     8
  0
VERTEX
  5
219
100
AcDbEntity
  8
lamps
370
    30
390
0
  6
Continuous
 62
    94
100
AcDbVertex
100
AcDb2dVertex
 10
-11.957633
 20
0.759989
 30
0.0
 70
     8
  0
VERTEX
  5
21A
100
AcDbEntity
  8
lamps
370
    30
390
0
  6
Continuous
 62
    94
100
AcDbVertex
100
AcDb2dVertex
 10
-11.987116
 20
0.511798
 30
0.0
 70
     8
  0
VERTEX
  5
21B
100
AcDbEntity
  8
lamps
370
    30
390
0
  6
Continuous
 62
    94
100
AcDbVertex
100
AcDb2dVertex
 10
-12.004853
 20
0.261628
 30
0.0
 70
     8
  0
VERTEX
  5
21C
100
AcDbEntity
  8
lamps
370
    30
390
0
  6
Continuous
 62
    94
100
AcDbVertex
100
AcDb2dVertex
 10
-12.010773
 20
0.010466
 30
0.0
 70
     8
  0
VERTEX
  5
21D
100
AcDbEntity
  8
lamps
370
    30
390
0
  6
Continuous
 62
    94
100
AcDbVertex
100
AcDb2dVertex
 10
-12.004854
 20
-0.240695
 30
0.0
 70
     8
  0
VERTEX
  5
21E
100
AcDbEntity
  8
lamps
370
    30
390
0
  6
Continuous
 62
    94
100
AcDbVertex
100
AcDb2dVertex
 10
-11.987119
 20
-0.490865
 30
0.0
 70
     8
  0
VERTEX
  5
21F
100
AcDbEntity
  8
lamps
370
    30
390
0
  6
Continuous
 62
    94
100
AcDbVertex
100
AcDb2dVertex
 10
-11.957638
 20
-0.739057
 30
0.0
 70
     8
  0
VERTEX
  5
220
100
AcDbEntity
  8
lamps
370
    30
390
0
  6
Continuous
 62
    94
100
AcDbVertex
100
AcDb2dVertex
 10
-11.916527
 20
-0.984291
 30
0.0
 70
     8
  0
VERTEX
  5
221
100
AcDbEntity
  8
lamps
370
    30
390
0
  6
Continuous
 62
    94
100
AcDbVertex
100
AcDb2dVertex
 10
-11.863948
 20
-1.225599
 30
0.0
 70
     8
  0
VERTEX
  5
222
100
AcDbEntity
  8
lamps
370
    30
390
0
  6
Continuous
 62
    94
100
AcDbVertex
100
AcDb2dVertex
 10
-11.800109
 20
-1.462029
 30
0.0
 70
     8
  0
VERTEX
  5
223
100
AcDbEntity
  8
lamps
370
    30
390
0
  6
Continuous
 62
    94
100
AcDbVertex
100
AcDb2dVertex
 10
-11.725262
 20
-1.692648
 30
0.0
 70
     8
  0
VERTEX
  5
224
100
AcDbEntity
  8
lamps
370
    30
390
0
  6
Continuous
 62
    94
100
AcDbVertex
100
AcDb2dVertex
 10
-11.639702
 20
-1.916545
 30
0.0
 70
     8
  0
VERTEX
  5
225
100
AcDbEntity
  8
lamps
370
    30
390
0
  6
Continuous
 62
    94
100
AcDbVertex
100
AcDb2dVertex
 10
-11.543768
 20
-2.132838
 30
0.0
 70
     8
  0
VERTEX
  5
226
100
AcDbEntity
  8
lamps
370
    30
390
0
  6
Continuous
 62
    94
100
AcDbVertex
100
AcDb2dVertex
 10
-11.437836
 20
-2.340672
 30
0.0
 70
     8
  0
VERTEX
  5
227
100
AcDbEntity
  8
lamps
370
    30
390
0
  6
Continuous
 62
    94
100
AcDbVertex
100
AcDb2dVertex
 10
-11.322326
 20
-2.539227
 30
0.0
 70
     8
  0
VERTEX
  5
228
100
AcDbEntity
  8
lamps
370
    30
390
0
  6
Continuous
 62
    94
100
AcDbVertex
100
AcDb2dVertex
 10
-11.197694
 20
-2.72772
 30
0.0
 70
     8
  0
VERTEX
  5
229
100
AcDbEntity
  8
lamps
370
    30
390
0
  6
Continuous
 62
    94
100
AcDbVertex
100
AcDb2dVertex
 10
-11.06443
 20
-2.905407
 30
0.0
 70
     8
  0
VERTEX
  5
22A
100
AcDbEntity
  8
lamps
370
    30
390
0
  6
Continuous
 62
    94
100
AcDbVertex
100
AcDb2dVertex
 10
-10.923062
 20
-3.071587
 30
0.0
 70
     8
  0
VERTEX
  5
22B
100
AcDbEntity
  8
lamps
370
    30
390
0
  6
Continuous
 62
    94
100
AcDbVertex
100
AcDb2dVertex
 10
-10.774148
 20
-3.225603
 30
0.0
 70
     8
  0
VERTEX
  5
22C
100
AcDbEntity
  8
lamps
370
    30
390
0
  6
Continuous
 62
    94
100
AcDbVertex
100
AcDb2dVertex
 10
-10.618274
 20
-3.366848
 30
0.0
 70
     8
  0
VERTEX
  5
22D
100
AcDbEntity
  8
lamps
370
    30
390
0
  6
Continuous
 62
    94
100
AcDbVertex
100
AcDb2dVertex
 10
-10.456055
 20
-3.494764
 30
0.0
 70
     8
  0
VERTEX
  5
22E
100
AcDbEntity
  8
lamps
370
    30
390
0
  6
Continuous
 62
    94
100
AcDbVertex
100
AcDb2dVertex
 10
-10.288133
 20
-3.608847
 30
0.0
 70
     8
  0
VERTEX
  5
22F
100
AcDbEntity
  8
lamps
370
    30
390
0
  6
Continuous
 62
    94
100
AcDbVertex
100
AcDb2dVertex
 10
-10.11517
 20
-3.708646
 30
0.0
 70
     8
  0
VERTEX
  5
230
100
AcDbEntity
  8
lamps
370
    30
390
0
  6
Continuous
 62
    94
100
AcDbVertex
100
AcDb2dVertex
 10
-9.937849
 20
-3.793768
 30
0.0
 70
     8
  0
VERTEX
  5
231
100
AcDbEntity
  8
lamps
370
    30
390
0
  6
Continuous
 62
    94
100
AcDbVertex
100
AcDb2dVertex
 10
-9.756868
 20
-3.863877
 30
0.0
 70
     8
  0
VERTEX
  5
232
100
AcDbEntity
  8
lamps
370
    30
390
0
  6
Continuous
 62
    94
100
AcDbVertex
100
AcDb2dVertex
 10
-9.572944
 20
-3.918695
 30
0.0
 70
     8
  0
VERTEX
  5
233
100
AcDbEntity
  8
lamps
370
    30
390
0
  6
Continuous
 62
    94
100
AcDbVertex
100
AcDb2dVertex
 10
-9.3868
 20
-3.958007
 30
0.0
 70
     8
  0
VERTEX
  5
234
100
AcDbEntity
  8
lamps
370
    30
390
0
  6
Continuous
 62
    94
100
AcDbVertex
100
AcDb2dVertex
 10
-9.199173
 20
-3.981657
 30
0.0
 70
     8
  0
VERTEX
  5
235
100
AcDbEntity
  8
lamps
370
    30
390
0
  6
Continuous
 62
    94
100
AcDbVertex
100
AcDb2dVertex
 10
-9.010802
 20
-3.989553
 30
0.0
  0
SEQEND
  5
236
100
AcDbEntity
  8
lamps
370
    30
390
0
  6
Continuous
 62
    94
  0
POLYLINE
  5
237
100
AcDbEntity
  8
lamps
370
    30
390
0
  6
Continuous
 62
    94
100
AcDb2dPolyline
 66
     1
 10
0.0
 20
0.0
 30
0.0
 70
     4
  0
VERTEX
  5
238
100
AcDbEntity
  8
lamps
370
    30
390
0
  6
Continuous
 62
    94
100
AcDbVertex
100
AcDb2dVertex
 10
8.989227
 20
4.010447
 30
0.0
  0
VERTEX
  5
239
100
AcDbEntity
  8
lamps
370
    30
390
0
  6
Continuous
 62
    94
100
AcDbVertex
100
AcDb2dVertex
 10
9.177599
 20
4.002554
 30
0.0
 70
     8
  0
VERTEX
  5
23A
100
AcDbEntity
  8
lamps
370
    30
390
0
  6
Continuous
 62
    94
100
AcDbVertex
100
AcDb2dVertex
 10
9.365227
 20
3.978906
 30
0.0
 70
     8
  0
VERTEX
  5
23B
100
AcDbEntity
  8
lamps
370
    30
390
0
  6
Continuous
 62
    94
100
AcDbVertex
100
AcDb2dVertex
 10
9.551372
 20
3.939596
 30
0.0
 70
     8
  0
VERTEX
  5
23C
100
AcDbEntity
  8
lamps
370
    30
390
0
  6
Continuous
 62
    94
100
AcDbVertex
100
AcDb2dVertex
 10
9.735299
 20
3.884779
 30
0.0
 70
     8
  0
VERTEX
  5
23D
100
AcDbEntity
  8
lamps
370
    30
390
0
  6
Continuous
 62
    94
100
AcDbVertex
100
AcDb2dVertex
 10
9.91628
 20
3.814672
 30
0.0
 70
     8
  0
VERTEX
  5
23E
100
AcDbEntity
  8
lamps
370
    30
390
0
  6
Continuous
 62
    94
100
AcDbVertex
100
AcDb2dVertex
 10
10.093604
 20
3.729552
 30
0.0
 70
     8
  0
VERTEX
  5
23F
100
AcDbEntity
  8
lamps
370
    30
390
0
  6
Continuous
 62
    94
100
AcDbVertex
100
AcDb2dVertex
 10
10.266568
 20
3.629753
 30
0.0
 70
     8
  0
VERTEX
  5
240
100
AcDbEntity
  8
lamps
370
    30
390
0
  6
Continuous
 62
    94
100
AcDbVertex
100
AcDb2dVertex
 10
10.434492
 20
3.515671
 30
0.0
 70
     8
  0
VERTEX
  5
241
100
AcDbEntity
  8
lamps
370
    30
390
0
  6
Continuous
 62
    94
100
AcDbVertex
100
AcDb2dVertex
 10
10.596711
 20
3.387755
 30
0.0
 70
     8
  0
VERTEX
  5
242
100
AcDbEntity
  8
lamps
370
    30
390
0
  6
Continuous
 62
    94
100
AcDbVertex
100
AcDb2dVertex
 10
10.752587
 20
3.246511
 30
0.0
 70
     8
  0
VERTEX
  5
243
100
AcDbEntity
  8
lamps
370
    30
390
0
  6
Continuous
 62
    94
100
AcDbVertex
100
AcDb2dVertex
 10
10.901503
 20
3.092495
 30
0.0
 70
     8
  0
VERTEX
  5
244
100
AcDbEntity
  8
lamps
370
    30
390
0
  6
Continuous
 62
    94
100
AcDbVertex
100
AcDb2dVertex
 10
11.042873
 20
2.926316
 30
0.0
 70
     8
  0
VERTEX
  5
245
100
AcDbEntity
  8
lamps
370
    30
390
0
  6
Continuous
 62
    94
100
AcDbVertex
100
AcDb2dVertex
 10
11.176138
 20
2.748629
 30
0.0
 70
     8
  0
VERTEX
  5
246
100
AcDbEntity
  8
lamps
370
    30
390
0
  6
Continuous
 62
    94
100
AcDbVertex
100
AcDb2dVertex
 10
11.300771
 20
2.560135
 30
0.0
 70
     8
  0
VERTEX
  5
247
100
AcDbEntity
  8
lamps
370
    30
390
0
  6
Continuous
 62
    94
100
AcDbVertex
100
AcDb2dVertex
 10
11.416283
 20
2.361579
 30
0.0
 70
     8
  0
VERTEX
  5
248
100
AcDbEntity
  8
lamps
370
    30
390
0
  6
Continuous
 62
    94
100
AcDbVertex
100
AcDb2dVertex
 10
11.522215
 20
2.153744
 30
0.0
 70
     8
  0
VERTEX
  5
249
100
AcDbEntity
  8
lamps
370
    30
390
0
  6
Continuous
 62
    94
100
AcDbVertex
100
AcDb2dVertex
 10
11.618151
 20
1.937451
 30
0.0
 70
     8
  0
VERTEX
  5
24A
100
AcDbEntity
  8
lamps
370
    30
390
0
  6
Continuous
 62
    94
100
AcDbVertex
100
AcDb2dVertex
 10
11.703712
 20
1.713552
 30
0.0
 70
     8
  0
VERTEX
  5
24B
100
AcDbEntity
  8
lamps
370
    30
390
0
  6
Continuous
 62
    94
100
AcDbVertex
100
AcDb2dVertex
 10
11.77856
 20
1.482932
 30
0.0
 70
     8
  0
VERTEX
  5
24C
100
AcDbEntity
  8
lamps
370
    30
390
0
  6
Continuous
 62
    94
100
AcDbVertex
100
AcDb2dVertex
 10
11.8424
 20
1.246501
 30
0.0
 70
     8
  0
VERTEX
  5
24D
100
AcDbEntity
  8
lamps
370
    30
390
0
  6
Continuous
 62
    94
100
AcDbVertex
100
AcDb2dVertex
 10
11.894979
 20
1.005191
 30
0.0
 70
     8
  0
VERTEX
  5
24E
100
AcDbEntity
  8
lamps
370
    30
390
0
  6
Continuous
 62
    94
100
AcDbVertex
100
AcDb2dVertex
 10
11.936091
 20
0.759956
 30
0.0
 70
     8
  0
VERTEX
  5
24F
100
AcDbEntity
  8
lamps
370
    30
390
0
  6
Continuous
 62
    94
100
AcDbVertex
100
AcDb2dVertex
 10
11.965572
 20
0.511763
 30
0.0
 70
     8
  0
VERTEX
  5
250
100
AcDbEntity
  8
lamps
370
    30
390
0
  6
Continuous
 62
    94
100
AcDbVertex
100
AcDb2dVertex
 10
11.983308
 20
0.261591
 30
0.0
 70
     8
  0
VERTEX
  5
251
100
AcDbEntity
  8
lamps
370
    30
390
0
  6
Continuous
 62
    94
100
AcDbVertex
100
AcDb2dVertex
 10
11.989227
 20
0.010428
 30
0.0
 70
     8
  0
VERTEX
  5
252
100
AcDbEntity
  8
lamps
370
    30
390
0
  6
Continuous
 62
    94
100
AcDbVertex
100
AcDb2dVertex
 10
11.983306
 20
-0.240734
 30
0.0
 70
     8
  0
VERTEX
  5
253
100
AcDbEntity
  8
lamps
370
    30
390
0
  6
Continuous
 62
    94
100
AcDbVertex
100
AcDb2dVertex
 10
11.965569
 20
-0.490906
 30
0.0
 70
     8
  0
VERTEX
  5
254
100
AcDbEntity
  8
lamps
370
    30
390
0
  6
Continuous
 62
    94
100
AcDbVertex
100
AcDb2dVertex
 10
11.936085
 20
-0.739099
 30
0.0
 70
     8
  0
VERTEX
  5
255
100
AcDbEntity
  8
lamps
370
    30
390
0
  6
Continuous
 62
    94
100
AcDbVertex
100
AcDb2dVertex
 10
11.894972
 20
-0.984334
 30
0.0
 70
     8
  0
VERTEX
  5
256
100
AcDbEntity
  8
lamps
370
    30
390
0
  6
Continuous
 62
    94
100
AcDbVertex
100
AcDb2dVertex
 10
11.842391
 20
-1.225642
 30
0.0
 70
     8
  0
VERTEX
  5
257
100
AcDbEntity
  8
lamps
370
    30
390
0
  6
Continuous
 62
    94
100
AcDbVertex
100
AcDb2dVertex
 10
11.77855
 20
-1.462073
 30
0.0
 70
     8
  0
VERTEX
  5
258
100
AcDbEntity
  8
lamps
370
    30
390
0
  6
Continuous
 62
    94
100
AcDbVertex
100
AcDb2dVertex
 10
11.7037
 20
-1.692692
 30
0.0
 70
     8
  0
VERTEX
  5
259
100
AcDbEntity
  8
lamps
370
    30
390
0
  6
Continuous
 62
    94
100
AcDbVertex
100
AcDb2dVertex
 10
11.618138
 20
-1.916589
 30
0.0
 70
     8
  0
VERTEX
  5
25A
100
AcDbEntity
  8
lamps
370
    30
390
0
  6
Continuous
 62
    94
100
AcDbVertex
100
AcDb2dVertex
 10
11.5222
 20
-2.132882
 30
0.0
 70
     8
  0
VERTEX
  5
25B
100
AcDbEntity
  8
lamps
370
    30
390
0
  6
Continuous
 62
    94
100
AcDbVertex
100
AcDb2dVertex
 10
11.416266
 20
-2.340715
 30
0.0
 70
     8
  0
VERTEX
  5
25C
100
AcDbEntity
  8
lamps
370
    30
390
0
  6
Continuous
 62
    94
100
AcDbVertex
100
AcDb2dVertex
 10
11.300753
 20
-2.53927
 30
0.0
 70
     8
  0
VERTEX
  5
25D
100
AcDbEntity
  8
lamps
370
    30
390
0
  6
Continuous
 62
    94
100
AcDbVertex
100
AcDb2dVertex
 10
11.176118
 20
-2.727762
 30
0.0
 70
     8
  0
VERTEX
  5
25E
100
AcDbEntity
  8
lamps
370
    30
390
0
  6
Continuous
 62
    94
100
AcDbVertex
100
AcDb2dVertex
 10
11.042852
 20
-2.905447
 30
0.0
 70
     8
  0
VERTEX
  5
25F
100
AcDbEntity
  8
lamps
370
    30
390
0
  6
Continuous
 62
    94
100
AcDbVertex
100
AcDb2dVertex
 10
10.901481
 20
-3.071624
 30
0.0
 70
     8
  0
VERTEX
  5
260
100
AcDbEntity
  8
lamps
370
    30
390
0
  6
Continuous
 62
    94
100
AcDbVertex
100
AcDb2dVertex
 10
10.752564
 20
-3.225638
 30
0.0
 70
     8
  0
VERTEX
  5
261
100
AcDbEntity
  8
lamps
370
    30
390
0
  6
Continuous
 62
    94
100
AcDbVertex
100
AcDb2dVertex
 10
10.596687
 20
-3.366881
 30
0.0
 70
     8
  0
VERTEX
  5
262
100
AcDbEntity
  8
lamps
370
    30
390
0
  6
Continuous
 62
    94
100
AcDbVertex
100
AcDb2dVertex
 10
10.434467
 20
-3.494795
 30
0.0
 70
     8
  0
VERTEX
  5
263
100
AcDbEntity
  8
lamps
370
    30
390
0
  6
Continuous
 62
    94
100
AcDbVertex
100
AcDb2dVertex
 10
10.266542
 20
-3.608875
 30
0.0
 70
     8
  0
VERTEX
  5
264
100
AcDbEntity
  8
lamps
370
    30
390
0
  6
Continuous
 62
    94
100
AcDbVertex
100
AcDb2dVertex
 10
10.093577
 20
-3.708671
 30
0.0
 70
     8
  0
VERTEX
  5
265
100
AcDbEntity
  8
lamps
370
    30
390
0
  6
Continuous
 62
    94
100
AcDbVertex
100
AcDb2dVertex
 10
9.916253
 20
-3.793789
 30
0.0
 70
     8
  0
VERTEX
  5
266
100
AcDbEntity
  8
lamps
370
    30
390
0
  6
Continuous
 62
    94
100
AcDbVertex
100
AcDb2dVertex
 10
9.735271
 20
-3.863894
 30
0.0
 70
     8
  0
VERTEX
  5
267
100
AcDbEntity
  8
lamps
370
    30
390
0
  6
Continuous
 62
    94
100
AcDbVertex
100
AcDb2dVertex
 10
9.551344
 20
-3.918708
 30
0.0
 70
     8
  0
VERTEX
  5
268
100
AcDbEntity
  8
lamps
370
    30
390
0
  6
Continuous
 62
    94
100
AcDbVertex
100
AcDb2dVertex
 10
9.365199
 20
-3.958016
 30
0.0
 70
     8
  0
VERTEX
  5
269
100
AcDbEntity
  8
lamps
370
    30
390
0
  6
Continuous
 62
    94
100
AcDbVertex
100
AcDb2dVertex
 10
9.17757
 20
-3.981662
 30
0.0
 70
     8
  0
VERTEX
  5
26A
100
AcDbEntity
  8
lamps
370
    30
390
0
  6
Continuous
 62
    94
100
AcDbVertex
100
AcDb2dVertex
 10
8.989198
 20
-3.989553
 30
0.0
  0
SEQEND
  5
26B
100
AcDbEntity
  8
lamps
370
    30
390
0
  6
Continuous
 62
    94
  0
LINE
  5
26C
100
AcDbEntity
  8
lamps
370
    30
390
0
  6
Continuous
 62
    94
100
AcDbLine
 10
8.989227
 20
-3.989553
 30
0.0
 11
-9.010773
 21
-3.989553
 31
0.0
  0
LINE
  5
26D
100
AcDbEntity
  8
lamps
370
    30
390
0
  6
Continuous
 62
    94
100
AcDbLine
 10
8.989227
 20
4.010447
 30
0.0
 11
-9.010773
 21
4.010447
 31
0.0
  0
ENDBLK
  5
26E
100
AcDbEntity
  8
0
390
0
100
AcDbBlockEnd
  0
BLOCK
  5
2D0
100
AcDbEntity
  8
0
390
0
100
AcDbBlockBegin
  2
centerline
 70
     0
 10
0.0
 20
0.0
 30
0.0
  3
centerline
  1

  0
HATCH
  5
2D1
100
AcDbEntity
  8
lamps
370
     0
390
0
  6
Continuous
 62
   134
100
AcDbHatch
 10
0.0
 20
0.0
 30
0.0
210
0.0
220
0.0
230
1.0
  2
DOTS
 70
     0
 71
     0
 91
        1
 92
        1
 93
        7
 72
     1
 10
3.867594295181334
 20
6.4058444127440453
 11
4.906555705703795
 21
7.0551950335502625
 72
     1
 10
4.6143475109711289
 20
8.4350652098655701
 11
4.5007112557068467
 21
8.4350652098655701
 72
     1
 10
4.5007112557068467
 20
8.4350652098655701
 11
4.0514704519882798
 21
7.7292797565460205
 72
     1
 10
4.0514704519882798
 20
7.7292797565460205
 11
3.4779837662354112
 21
7.1201301217079163
 72
     1
 10
3.4779837662354112
 20
7.1201301217079163
 11
2.8150835568085313
 21
6.6538248062133789
 72
     1
 10
2.8150835568085313
 20
6.6538248062133789
 11
2.0818796688690782
 21
6.3084418177604675
 72
     1
 10
4.3059053951874375
 20
13.61363685131073
 11
4.8740866715088487
 21
14.993507027626038
 97
        0
 75
     0
 76
     1
 52
0.0
 41
12.0
 77
     0
 78
     1
 53
0.0
 43
0.0
 44
0.0
 45
0.3744
 46
0.75
 79
     2
 49
0.0
 49
-0.75
 98
        1
 10
0.0
 20
0.0
  0
HATCH
  5
2D2
100
AcDbEntity
  8
lamps
370
     0
390
0
  6
Continuous
 62
    14
100
AcDbHatch
 10
0.0
 20
0.0
 30
0.0
210
0.0
220
0.0
230
1.0
  2
DOTS
 70
     0
 71
     0
 91
        1
 92
        1
 93
       26
 72
     1
 10
-2.0041587855666876
 20
10.766233921051025
 11
-1.4684445317834616
 21
10.392857313156128
 72
     1
 10
-1.338574355468154
 20
9.8733766078948975
 11
-1.338574355468154
 21
8.0551947355270386
 72
     1
 10
-1.338574355468154
 20
8.0551947355270386
 11
-1.338574355468154
 21
6.2207789421081543
 72
     1
 10
-1.338574355468154
 20
6.2207789421081543
 11
-1.338574355468154
 21
4.4025970697402954
 72
     1
 10
-1.338574355468154
 20
4.4025970697402954
 11
-1.338574355468154
 21
2.5681814253330231
 72
     1
 10
-2.5236392859369516
 20
0.7824671412818134
 11
-0.6080549117177725
 21
0.7824671412818134
 72
     1
 10
-0.6080549117177725
 20
0.7824671412818134
 11
1.3237633649259806
 21
0.7824671412818134
 72
     1
 10
1.3237633649259806
 20
0.7824671412818134
 11
3.2393475715070963
 21
0.7824671412818134
 72
     1
 10
3.2393475715070963
 20
0.7824671412818134
 11
5.1711656991392374
 21
0.7824671412818134
 72
     1
 10
5.1711656991392374
 20
0.7824671412818134
 11
7.0867499057203531
 21
0.7824671412818134
 72
     1
 10
7.0867499057203531
 20
0.7824671412818134
 11
7.4114253465086222
 21
1.8376619815826416
 72
     1
 10
7.4114253465086222
 20
1.8376619815826416
 11
7.7361001912504435
 21
2.9090904891490936
 72
     1
 10
7.7361001912504435
 20
2.9090904891490936
 11
7.5899960938841105
 21
2.9090904891490936
 72
     1
 10
7.5899960938841105
 20
2.9090904891490936
 11
7.1192171517759562
 21
2.4383112490177155
 72
     1
 10
3.9049311820417643
 20
1.2857138440012932
 11
2.5575288478285074
 21
1.2857138440012932
 72
     1
 10
2.5575288478285074
 20
1.2857138440012932
 11
1.2101262155920267
 21
1.2857138440012932
 72
     1
 10
0.0250613037496805
 20
2.7142852246761322
 11
0.0250613037496805
 21
4.3051944375038147
 72
     1
 10
0.0250613037496805
 20
4.3051944375038147
 11
0.0250613037496805
 21
5.9123374223709106
 72
     1
 10
0.0250613037496805
 20
5.9123374223709106
 11
0.0250613037496805
 21
7.5032467842102051
 72
     1
 10
0.0250613037496805
 20
7.5032467842102051
 11
0.0250613037496805
 21
9.1103894710540771
 72
     1
 10
0.0250613037496805
 20
9.1103894710540771
 11
0.0899963919073343
 21
9.8733766078948975
 72
     1
 10
0.4309054557234049
 20
10.555194735527039
 11
0.93415223993361
 21
10.766233921051025
 72
     1
 10
0.93415223993361
 20
10.766233921051025
 11
0.93415223993361
 21
10.896104097366333
 72
     1
 10
0.93415223993361
 20
10.896104097366333
 11
-0.5755879636853933
 21
10.896104097366333
 72
     1
 10
-0.5755879636853933
 20
10.896104097366333
 11
-2.0853282045572996
 21
10.896104097366333
 72
     1
 10
-2.0853282045572996
 20
10.896104097366333
 11
-2.0041587855666876
 21
10.766233921051025
 97
        0
 75
     0
 76
     1
 52
0.0
 41
12.0
 77
     0
 78
     1
 53
0.0
 43
0.0
 44
0.0
 45
0.3744
 46
0.75
 79
     2
 49
0.0
 49
-0.75
 98
        1
 10
0.0
 20
0.0
  0
ARC
  5
2D3
100
AcDbEntity
  8
lamps
370
     0
390
0
  6
Continuous
 62
   174
100
AcDbCircle
 10
0.38129
 20
11.161513
 30
0.0
 40
5.537903
100
AcDbArc
 50
195.46251
 51
209.880178
  0
ARC
  5
2D4
100
AcDbEntity
  8
lamps
370
     0
390
0
  6
Continuous
 62
   174
100
AcDbCircle
 10
0.280833
 20
11.06466
 30
0.0
 40
5.415669
100
AcDbArc
 50
180.340583
 51
194.75826
  0
ARC
  5
2D5
100
AcDbEntity
  8
lamps
370
     0
390
0
  6
Continuous
 62
   174
100
AcDbCircle
 10
0.745656
 20
10.939622
 30
0.0
 40
5.881129
100
AcDbArc
 50
166.476044
 51
179.095429
  0
ARC
  5
2D6
100
AcDbEntity
  8
lamps
370
     0
390
0
  6
Continuous
 62
   174
100
AcDbCircle
 10
3.282975
 20
10.066169
 30
0.0
 40
8.556179
100
AcDbArc
 50
155.744006
 51
164.762326
  0
HATCH
  5
2D7
100
AcDbEntity
  8
lamps
370
     0
390
0
  6
Continuous
 62
    14
100
AcDbHatch
 10
0.0
 20
0.0
 30
0.0
210
0.0
220
0.0
230
1.0
  2
DOTS
 70
     0
 71
     0
 91
        1
 92
        1
 93
       26
 72
     1
 10
-1.4285708218812943
 20
10.766233921051025
 11
-0.8928565680980682
 21
10.392857313156128
 72
     1
 10
-0.7629863917827606
 20
9.8733766078948975
 11
-0.7629863917827606
 21
8.0551947355270386
 72
     1
 10
-0.7629863917827606
 20
8.0551947355270386
 11
-0.7629863917827606
 21
6.2207789421081543
 72
     1
 10
-0.7629863917827606
 20
6.2207789421081543
 11
-0.7629863917827606
 21
4.4025970697402954
 72
     1
 10
-0.7629863917827606
 20
4.4025970697402954
 11
-0.7629863917827606
 21
2.5681814253330231
 72
     1
 10
-1.9480513222515583
 20
0.7824671412818134
 11
-0.0324669480323792
 21
0.7824671412818134
 72
     1
 10
-0.0324669480323792
 20
0.7824671412818134
 11
1.8993513286113739
 21
0.7824671412818134
 72
     1
 10
1.8993513286113739
 20
0.7824671412818134
 11
3.8149355351924896
 21
0.7824671412818134
 72
     1
 10
3.8149355351924896
 20
0.7824671412818134
 11
5.7467536628246307
 21
0.7824671412818134
 72
     1
 10
5.7467536628246307
 20
0.7824671412818134
 11
7.6623378694057465
 21
0.7824671412818134
 72
     1
 10
7.6623378694057465
 20
0.7824671412818134
 11
7.9870133101940155
 21
1.8376619815826416
 72
     1
 10
7.9870133101940155
 20
1.8376619815826416
 11
8.3116881549358368
 21
2.9090904891490936
 72
     1
 10
8.3116881549358368
 20
2.9090904891490936
 11
8.1655840575695038
 21
2.9090904891490936
 72
     1
 10
8.1655840575695038
 20
2.9090904891490936
 11
7.6948051154613495
 21
2.4383112490177155
 72
     1
 10
4.4805191457271576
 20
1.2857138440012932
 11
3.1331168115139008
 21
1.2857138440012932
 72
     1
 10
3.1331168115139008
 20
1.2857138440012932
 11
1.78571417927742
 21
1.2857138440012932
 72
     1
 10
0.6006492674350739
 20
2.7142852246761322
 11
0.6006492674350739
 21
4.3051944375038147
 72
     1
 10
0.6006492674350739
 20
4.3051944375038147
 11
0.6006492674350739
 21
5.9123374223709106
 72
     1
 10
0.6006492674350739
 20
5.9123374223709106
 11
0.6006492674350739
 21
7.5032467842102051
 72
     1
 10
0.6006492674350739
 20
7.5032467842102051
 11
0.6006492674350739
 21
9.1103894710540771
 72
     1
 10
0.6006492674350739
 20
9.1103894710540771
 11
0.6655843555927277
 21
9.8733766078948975
 72
     1
 10
1.0064934194087982
 20
10.555194735527039
 11
1.5097402036190033
 21
10.766233921051025
 72
     1
 10
1.5097402036190033
 20
10.766233921051025
 11
1.5097402036190033
 21
10.896104097366333
 72
     1
 10
1.5097402036190033
 20
10.896104097366333
 11
0.0
 21
10.896104097366333
 72
     1
 10
0.0
 20
10.896104097366333
 11
-1.5097402408719063
 21
10.896104097366333
 72
     1
 10
-1.5097402408719063
 20
10.896104097366333
 11
-1.4285708218812943
 21
10.766233921051025
 97
        0
 75
     0
 76
     1
 52
0.0
 41
96.0
 77
     0
 78
     1
 53
0.0
 43
0.0
 44
0.0
 45
2.9951999999999996
 46
6.0
 79
     2
 49
0.0
 49
-6.0
 98
        1
 10
0.0
 20
0.0
  0
ARC
  5
2D8
100
AcDbEntity
  8
lamps
370
     0
390
0
  6
Continuous
 62
   174
100
AcDbCircle
 10
0.843702
 20
9.340589
 30
0.0
 40
7.135678
100
AcDbArc
 50
94.471854
 51
110.685984
  0
ARC
  5
2D9
100
AcDbEntity
  8
lamps
370
     0
390
0
  6
Continuous
 62
   174
100
AcDbCircle
 10
0.644067
 20
10.450054
 30
0.0
 40
6.03071
100
AcDbArc
 50
112.635414
 51
130.644145
  0
ARC
  5
2DA
100
AcDbEntity
  8
lamps
370
     0
390
0
  6
Continuous
 62
   174
100
AcDbCircle
 10
1.170375
 20
9.972982
 30
0.0
 40
6.736097
100
AcDbArc
 50
131.397791
 51
147.612026
  0
ARC
  5
2DB
100
AcDbEntity
  8
lamps
370
     0
390
0
  6
Continuous
 62
   174
100
AcDbCircle
 10
0.604765
 20
11.934311
 30
0.0
 40
6.142136
100
AcDbArc
 50
215.099461
 51
234.900536
  0
ARC
  5
2DC
100
AcDbEntity
  8
lamps
370
     0
390
0
  6
Continuous
 62
   174
100
AcDbCircle
 10
0.661959
 20
12.326404
 30
0.0
 40
6.498272
100
AcDbArc
 50
236.475993
 51
254.484723
  0
ARC
  5
2DD
100
AcDbEntity
  8
lamps
370
     0
390
0
  6
Continuous
 62
   174
100
AcDbCircle
 10
1.045472
 20
14.076811
 30
0.0
 40
8.288067
100
AcDbArc
 50
255.16697
 51
269.584645
  0
ARC
  5
2DE
100
AcDbEntity
  8
lamps
370
     0
390
0
  6
Continuous
 62
   174
100
AcDbCircle
 10
0.840883
 20
17.088924
 30
0.0
 40
11.300887
100
AcDbArc
 50
270.732673
 51
279.750966
  0
ARC
  5
2DF
100
AcDbEntity
  8
lamps
370
     0
390
0
  6
Continuous
 62
   174
100
AcDbCircle
 10
0.717146
 20
16.882699
 30
0.0
 40
11.119705
100
AcDbArc
 50
280.559324
 51
289.577652
  0
LINE
  5
2E0
100
AcDbEntity
  8
lamps
370
     0
390
0
  6
Continuous
 62
   174
100
AcDbLine
 10
4.443182
 20
6.405844
 30
0.0
 11
5.482144
 21
7.055195
 31
0.0
  0
ARC
  5
2E1
100
AcDbEntity
  8
lamps
370
     0
390
0
  6
Continuous
 62
   174
100
AcDbCircle
 10
-3.412482
 20
5.892499
 30
0.0
 40
8.970297
100
AcDbArc
 50
7.447413
 51
16.465787
  0
ARC
  5
2E2
100
AcDbEntity
  8
lamps
370
     0
390
0
  6
Continuous
 62
   174
100
AcDbCircle
 10
1.079543
 20
10.68145
 30
0.0
 40
4.648984
100
AcDbArc
 50
270.040042
 51
289.841102
  0
ARC
  5
2E3
100
AcDbEntity
  8
lamps
370
     0
390
0
  6
Continuous
 62
   174
100
AcDbCircle
 10
1.090003
 20
10.62191
 30
0.0
 40
4.589448
100
AcDbArc
 50
248.318962
 51
269.909983
  0
ARC
  5
2E4
100
AcDbEntity
  8
lamps
370
     0
390
0
  6
Continuous
 62
   174
100
AcDbCircle
 10
1.236279
 20
10.811129
 30
0.0
 40
4.819773
100
AcDbArc
 50
225.943067
 51
247.534076
  0
ARC
  5
2E5
100
AcDbEntity
  8
lamps
370
     0
390
0
  6
Continuous
 62
   174
100
AcDbCircle
 10
1.920066
 20
10.94028
 30
0.0
 40
5.40302
100
AcDbArc
 50
200.089433
 51
221.680465
  0
ARC
  5
2E6
100
AcDbEntity
  8
lamps
370
     0
390
0
  6
Continuous
 62
   174
100
AcDbCircle
 10
2.480346
 20
11.122138
 30
0.0
 40
5.991716
100
AcDbArc
 50
180.081297
 51
199.882358
  0
ARC
  5
2E7
100
AcDbEntity
  8
lamps
370
     0
390
0
  6
Continuous
 62
   174
100
AcDbCircle
 10
2.650432
 20
11.119303
 30
0.0
 40
6.161799
100
AcDbArc
 50
163.838482
 51
180.05269
  0
ARC
  5
2E8
100
AcDbEntity
  8
lamps
370
     0
390
0
  6
Continuous
 62
   174
100
AcDbCircle
 10
2.074123
 20
11.265508
 30
0.0
 40
5.567605
100
AcDbArc
 50
145.62407
 51
163.632803
  0
ARC
  5
2E9
100
AcDbEntity
  8
lamps
370
     0
390
0
  6
Continuous
 62
   174
100
AcDbCircle
 10
1.237725
 20
11.81711
 30
0.0
 40
4.56587
100
AcDbArc
 50
123.819988
 51
145.410959
  0
ARC
  5
2EA
100
AcDbEntity
  8
lamps
370
     0
390
0
  6
Continuous
 62
   174
100
AcDbCircle
 10
0.900603
 20
11.586106
 30
0.0
 40
4.588382
100
AcDbArc
 50
104.292524
 51
118.710328
  0
ARC
  5
2EB
100
AcDbEntity
  8
lamps
370
     0
390
0
  6
Continuous
 62
   174
100
AcDbCircle
 10
0.988618
 20
11.040188
 30
0.0
 40
5.139369
100
AcDbArc
 50
91.121952
 51
103.740884
  0
ARC
  5
2EC
100
AcDbEntity
  8
lamps
370
     0
390
0
  6
Continuous
 62
   174
100
AcDbCircle
 10
0.886928
 20
11.242406
 30
0.0
 40
4.936166
100
AcDbArc
 50
70.186799
 51
89.987709
  0
ARC
  5
2ED
100
AcDbEntity
  8
lamps
370
     0
390
0
  6
Continuous
 62
   174
100
AcDbCircle
 10
0.97566
 20
11.702038
 30
0.0
 40
4.474251
100
AcDbArc
 50
47.669704
 51
69.260709
  0
ARC
  5
2EE
100
AcDbEntity
  8
lamps
370
     0
390
0
  6
Continuous
 62
   174
100
AcDbCircle
 10
1.708644
 20
12.568048
 30
0.0
 40
3.340693
100
AcDbArc
 50
18.239254
 51
46.961415
  0
LINE
  5
2EF
100
AcDbEntity
  8
lamps
370
     0
390
0
  6
Continuous
 62
   174
100
AcDbLine
 10
4.881493
 20
13.613637
 30
0.0
 11
5.449675
 21
14.993507
 31
0.0
  0
ARC
  5
2F0
100
AcDbEntity
  8
lamps
370
     0
390
0
  6
Continuous
 62
   174
100
AcDbCircle
 10
3.876469
 20
13.931982
 30
0.0
 40
1.897844
100
AcDbArc
 50
34.009632
 51
59.172621
  0
ARC
  5
2F1
100
AcDbEntity
  8
lamps
370
     0
390
0
  6
Continuous
 62
   174
100
AcDbCircle
 10
4.277212
 20
14.384381
 30
0.0
 40
1.308826
100
AcDbArc
 50
64.094341
 51
69.50855
  0
ARC
  5
2F2
100
AcDbEntity
  8
lamps
370
     0
390
0
  6
Continuous
 62
   174
100
AcDbCircle
 10
-0.21207
 20
4.090734
 30
0.0
 40
12.537138
100
AcDbArc
 50
66.757457
 51
75.775847
  0
ARC
  5
2F3
100
AcDbEntity
  8
lamps
370
     0
390
0
  6
Continuous
 62
   174
100
AcDbCircle
 10
0.809598
 20
7.703144
 30
0.0
 40
8.785038
100
AcDbArc
 50
76.445786
 51
89.065202
  0
ARC
  5
2F4
100
AcDbEntity
  8
lamps
370
     0
390
0
  6
Continuous
 62
   174
100
AcDbCircle
 10
1.048182
 20
11.32698
 30
0.0
 40
5.160912
100
AcDbArc
 50
91.057629
 51
94.667234
  0
ARC
  5
2F5
100
AcDbEntity
  8
lamps
370
     0
390
0
  6
Continuous
 62
   174
100
AcDbCircle
 10
0.200165
 20
21.872772
 30
0.0
 40
5.418929
100
AcDbArc
 50
270.921731
 51
274.530938
  0
LINE
  5
2F6
100
AcDbEntity
  8
lamps
370
     0
390
0
  6
Continuous
 62
   174
100
AcDbLine
 10
-1.428571
 20
10.766234
 30
0.0
 11
-0.892857
 21
10.392857
 31
0.0
  0
ARC
  5
2F7
100
AcDbEntity
  8
lamps
370
     0
390
0
  6
Continuous
 62
   174
100
AcDbCircle
 10
-2.095411
 20
9.883781
 30
0.0
 40
1.30587
100
AcDbArc
 50
13.925531
 51
22.944367
  0
ARC
  5
2F8
100
AcDbEntity
  8
lamps
370
     0
390
0
  6
Continuous
 62
   174
100
AcDbCircle
 10
-5.94835
 20
9.005135
 30
0.0
 40
5.257551
100
AcDbArc
 50
9.505473
 51
13.114392
  0
ARC
  5
2F9
100
AcDbEntity
  8
lamps
370
     0
390
0
  6
Continuous
 62
   174
100
AcDbCircle
 10
-2.632322
 20
2.522657
 30
0.0
 40
1.86989
100
AcDbArc
 50
291.465545
 51
361.395058
  0
LINE
  5
2FA
100
AcDbEntity
  8
lamps
370
     0
390
0
  6
Continuous
 62
   174
100
AcDbLine
 10
8.165584
 20
2.90909
 30
0.0
 11
7.694805
 21
2.438311
 31
0.0
  0
ARC
  5
2FB
100
AcDbEntity
  8
lamps
370
     0
390
0
  6
Continuous
 62
   174
100
AcDbCircle
 10
4.811514
 20
5.99133
 30
0.0
 40
4.57573
100
AcDbArc
 50
287.468516
 51
309.059489
  0
ARC
  5
2FC
100
AcDbEntity
  8
lamps
370
     0
390
0
  6
Continuous
 62
   174
100
AcDbCircle
 10
3.532845
 20
10.455901
 30
0.0
 40
9.219025
100
AcDbArc
 50
275.900167
 51
286.719697
  0
ARC
  5
2FD
100
AcDbEntity
  8
lamps
370
     0
390
0
  6
Continuous
 62
   174
100
AcDbCircle
 10
2.635822
 20
6.250418
 30
0.0
 40
5.03696
100
AcDbArc
 50
253.067476
 51
260.283456
  0
ARC
  5
2FE
100
AcDbEntity
  8
lamps
370
     0
390
0
  6
Continuous
 62
   174
100
AcDbCircle
 10
3.237016
 20
3.115199
 30
0.0
 40
2.666676
100
AcDbArc
 50
188.646759
 51
219.14357
  0
ARC
  5
2FF
100
AcDbEntity
  8
lamps
370
     0
390
0
  6
Continuous
 62
   174
100
AcDbCircle
 10
3.531296
 20
8.866657
 30
0.0
 40
3.037398
100
AcDbArc
 50
146.226183
 51
160.643714
  0
LINE
  5
300
100
AcDbEntity
  8
lamps
370
     0
390
0
  6
Continuous
 62
   174
100
AcDbLine
 10
1.006493
 20
10.555195
 30
0.0
 11
1.50974
 21
10.766234
 31
0.0
  0
LINE
  5
301
100
AcDbEntity
  8
lamps
370
     0
390
0
  6
Continuous
 62
   174
100
AcDbLine
 10
-0.762986
 20
9.873377
 30
0.0
 11
-0.762986
 21
8.055195
 31
0.0
  0
LINE
  5
302
100
AcDbEntity
  8
lamps
370
     0
390
0
  6
Continuous
 62
   174
100
AcDbLine
 10
-0.762986
 20
8.055195
 30
0.0
 11
-0.762986
 21
6.220779
 31
0.0
  0
LINE
  5
303
100
AcDbEntity
  8
lamps
370
     0
390
0
  6
Continuous
 62
   174
100
AcDbLine
 10
-0.762986
 20
6.220779
 30
0.0
 11
-0.762986
 21
4.402597
 31
0.0
  0
LINE
  5
304
100
AcDbEntity
  8
lamps
370
     0
390
0
  6
Continuous
 62
   174
100
AcDbLine
 10
-0.762986
 20
4.402597
 30
0.0
 11
-0.762986
 21
2.568181
 31
0.0
  0
LINE
  5
305
100
AcDbEntity
  8
lamps
370
     0
390
0
  6
Continuous
 62
   174
100
AcDbLine
 10
-1.948051
 20
0.782467
 30
0.0
 11
-0.032467
 21
0.782467
 31
0.0
  0
LINE
  5
306
100
AcDbEntity
  8
lamps
370
     0
390
0
  6
Continuous
 62
   174
100
AcDbLine
 10
-0.032467
 20
0.782467
 30
0.0
 11
1.899351
 21
0.782467
 31
0.0
  0
LINE
  5
307
100
AcDbEntity
  8
lamps
370
     0
390
0
  6
Continuous
 62
   174
100
AcDbLine
 10
1.899351
 20
0.782467
 30
0.0
 11
3.814936
 21
0.782467
 31
0.0
  0
LINE
  5
308
100
AcDbEntity
  8
lamps
370
     0
390
0
  6
Continuous
 62
   174
100
AcDbLine
 10
3.814936
 20
0.782467
 30
0.0
 11
5.746754
 21
0.782467
 31
0.0
  0
LINE
  5
309
100
AcDbEntity
  8
lamps
370
     0
390
0
  6
Continuous
 62
   174
100
AcDbLine
 10
5.746754
 20
0.782467
 30
0.0
 11
7.662338
 21
0.782467
 31
0.0
  0
LINE
  5
30A
100
AcDbEntity
  8
lamps
370
     0
390
0
  6
Continuous
 62
   174
100
AcDbLine
 10
7.662338
 20
0.782467
 30
0.0
 11
7.987013
 21
1.837662
 31
0.0
  0
LINE
  5
30B
100
AcDbEntity
  8
lamps
370
     0
390
0
  6
Continuous
 62
   174
100
AcDbLine
 10
7.987013
 20
1.837662
 30
0.0
 11
8.311688
 21
2.90909
 31
0.0
  0
LINE
  5
30C
100
AcDbEntity
  8
lamps
370
     0
390
0
  6
Continuous
 62
   174
100
AcDbLine
 10
8.311688
 20
2.90909
 30
0.0
 11
8.165584
 21
2.90909
 31
0.0
  0
LINE
  5
30D
100
AcDbEntity
  8
lamps
370
     0
390
0
  6
Continuous
 62
   174
100
AcDbLine
 10
4.480519
 20
1.285714
 30
0.0
 11
3.133117
 21
1.285714
 31
0.0
  0
LINE
  5
30E
100
AcDbEntity
  8
lamps
370
     0
390
0
  6
Continuous
 62
   174
100
AcDbLine
 10
3.133117
 20
1.285714
 30
0.0
 11
1.785714
 21
1.285714
 31
0.0
  0
LINE
  5
30F
100
AcDbEntity
  8
lamps
370
     0
390
0
  6
Continuous
 62
   174
100
AcDbLine
 10
0.600649
 20
2.714285
 30
0.0
 11
0.600649
 21
4.305194
 31
0.0
  0
LINE
  5
310
100
AcDbEntity
  8
lamps
370
     0
390
0
  6
Continuous
 62
   174
100
AcDbLine
 10
0.600649
 20
4.305194
 30
0.0
 11
0.600649
 21
5.912337
 31
0.0
  0
LINE
  5
311
100
AcDbEntity
  8
lamps
370
     0
390
0
  6
Continuous
 62
   174
100
AcDbLine
 10
0.600649
 20
5.912337
 30
0.0
 11
0.600649
 21
7.503247
 31
0.0
  0
LINE
  5
312
100
AcDbEntity
  8
lamps
370
     0
390
0
  6
Continuous
 62
   174
100
AcDbLine
 10
0.600649
 20
7.503247
 30
0.0
 11
0.600649
 21
9.110389
 31
0.0
  0
LINE
  5
313
100
AcDbEntity
  8
lamps
370
     0
390
0
  6
Continuous
 62
   174
100
AcDbLine
 10
0.600649
 20
9.110389
 30
0.0
 11
0.665584
 21
9.873377
 31
0.0
  0
LINE
  5
314
100
AcDbEntity
  8
lamps
370
     0
390
0
  6
Continuous
 62
   174
100
AcDbLine
 10
1.50974
 20
10.766234
 30
0.0
 11
1.50974
 21
10.896104
 31
0.0
  0
LINE
  5
315
100
AcDbEntity
  8
lamps
370
     0
390
0
  6
Continuous
 62
   174
100
AcDbLine
 10
1.50974
 20
10.896104
 30
0.0
 11
0.0
 21
10.896104
 31
0.0
  0
LINE
  5
316
100
AcDbEntity
  8
lamps
370
     0
390
0
  6
Continuous
 62
   174
100
AcDbLine
 10
0.0
 20
10.896104
 30
0.0
 11
-1.50974
 21
10.896104
 31
0.0
  0
POLYLINE
  5
317
100
AcDbEntity
  8
lamps
370
     0
390
0
  6
Continuous
 62
   134
100
AcDb2dPolyline
 66
     1
 10
0.0
 20
0.0
 30
0.0
 70
   128
  0
VERTEX
  5
318
100
AcDbEntity
  8
lamps
370
     0
390
0
  6
Continuous
 62
   134
100
AcDbVertex
100
AcDb2dVertex
 10
2.657468
 20
6.308442
 30
0.0
  0
VERTEX
  5
319
100
AcDbEntity
  8
lamps
370
     0
390
0
  6
Continuous
 62
   134
100
AcDbVertex
100
AcDb2dVertex
 10
3.390672
 20
6.653825
 30
0.0
  0
VERTEX
  5
31A
100
AcDbEntity
  8
lamps
370
     0
390
0
  6
Continuous
 62
   134
100
AcDbVertex
100
AcDb2dVertex
 10
4.053572
 20
7.12013
 30
0.0
  0
VERTEX
  5
31B
100
AcDbEntity
  8
lamps
370
     0
390
0
  6
Continuous
 62
   134
100
AcDbVertex
100
AcDb2dVertex
 10
4.627058
 20
7.72928
 30
0.0
  0
VERTEX
  5
31C
100
AcDbEntity
  8
lamps
370
     0
390
0
  6
Continuous
 62
   134
100
AcDbVertex
100
AcDb2dVertex
 10
5.076299
 20
8.435065
 30
0.0
  0
VERTEX
  5
31D
100
AcDbEntity
  8
lamps
370
     0
390
0
  6
Continuous
 62
   134
100
AcDbVertex
100
AcDb2dVertex
 10
5.189935
 20
8.435065
 30
0.0
  0
SEQEND
  5
31E
100
AcDbEntity
  8
lamps
370
     0
390
0
  6
Continuous
 62
   134
  0
LINE
  5
31F
100
AcDbEntity
  8
lamps
370
     0
390
0
  6
Continuous
 62
   134
100
AcDbLine
 10
-1.50974
 20
10.896104
 30
0.0
 11
-1.428571
 21
10.766234
 31
0.0
  0
HATCH
  5
320
100
AcDbEntity
  8
lamps
370
     0
390
0
  6
Continuous
 62
     1
100
AcDbHatch
 10
0.0
 20
0.0
 30
0.0
210
0.0
220
0.0
230
1.0
  2
DOTS
 70
     0
 71
     0
 91
        1
 92
        1
 93
        7
 72
     1
 10
4.4431822588667274
 20
6.4058444127440453
 11
5.4821436693891883
 21
7.0551950335502625
 72
     1
 10
5.1899354746565223
 20
8.4350652098655701
 11
5.07629921939224
 21
8.4350652098655701
 72
     1
 10
5.07629921939224
 20
8.4350652098655701
 11
4.6270584156736732
 21
7.7292797565460205
 72
     1
 10
4.6270584156736732
 20
7.7292797565460205
 11
4.0535717299208045
 21
7.1201301217079163
 72
     1
 10
4.0535717299208045
 20
7.1201301217079163
 11
3.3906715204939246
 21
6.6538248062133789
 72
     1
 10
3.3906715204939246
 20
6.6538248062133789
 11
2.6574676325544715
 21
6.3084418177604675
 72
     1
 10
4.8814933588728309
 20
13.61363685131073
 11
5.449674635194242
 21
14.993507027626038
 97
        0
 75
     0
 76
     1
 52
0.0
 41
4.0
 77
     0
 78
     1
 53
0.0
 43
0.0
 44
0.0
 45
0.1248
 46
0.25
 79
     2
 49
0.0
 49
-0.25
 98
        1
 10
0.0
 20
0.0
  0
HATCH
  5
321
100
AcDbEntity
  8
lamps
370
     0
390
0
  6
Continuous
 62
     1
100
AcDbHatch
 10
0.0
 20
0.0
 30
0.0
210
0.0
220
0.0
230
1.0
  2
DOTS
 70
     0
 71
     0
 91
        1
 92
        1
 93
       26
 72
     1
 10
-1.4285708218812943
 20
10.766233921051025
 11
-0.8928565680980682
 21
10.392857313156128
 72
     1
 10
-0.7629863917827606
 20
9.8733766078948975
 11
-0.7629863917827606
 21
8.0551947355270386
 72
     1
 10
-0.7629863917827606
 20
8.0551947355270386
 11
-0.7629863917827606
 21
6.2207789421081543
 72
     1
 10
-0.7629863917827606
 20
6.2207789421081543
 11
-0.7629863917827606
 21
4.4025970697402954
 72
     1
 10
-0.7629863917827606
 20
4.4025970697402954
 11
-0.7629863917827606
 21
2.5681814253330231
 72
     1
 10
-1.9480513222515583
 20
0.7824671412818134
 11
-0.0324669480323792
 21
0.7824671412818134
 72
     1
 10
-0.0324669480323792
 20
0.7824671412818134
 11
1.8993513286113739
 21
0.7824671412818134
 72
     1
 10
1.8993513286113739
 20
0.7824671412818134
 11
3.8149355351924896
 21
0.7824671412818134
 72
     1
 10
3.8149355351924896
 20
0.7824671412818134
 11
5.7467536628246307
 21
0.7824671412818134
 72
     1
 10
5.7467536628246307
 20
0.7824671412818134
 11
7.6623378694057465
 21
0.7824671412818134
 72
     1
 10
7.6623378694057465
 20
0.7824671412818134
 11
7.9870133101940155
 21
1.8376619815826416
 72
     1
 10
7.9870133101940155
 20
1.8376619815826416
 11
8.3116881549358368
 21
2.9090904891490936
 72
     1
 10
8.3116881549358368
 20
2.9090904891490936
 11
8.1655840575695038
 21
2.9090904891490936
 72
     1
 10
8.1655840575695038
 20
2.9090904891490936
 11
7.6948051154613495
 21
2.4383112490177155
 72
     1
 10
4.4805191457271576
 20
1.2857138440012932
 11
3.1331168115139008
 21
1.2857138440012932
 72
     1
 10
3.1331168115139008
 20
1.2857138440012932
 11
1.78571417927742
 21
1.2857138440012932
 72
     1
 10
0.6006492674350739
 20
2.7142852246761322
 11
0.6006492674350739
 21
4.3051944375038147
 72
     1
 10
0.6006492674350739
 20
4.3051944375038147
 11
0.6006492674350739
 21
5.9123374223709106
 72
     1
 10
0.6006492674350739
 20
5.9123374223709106
 11
0.6006492674350739
 21
7.5032467842102051
 72
     1
 10
0.6006492674350739
 20
7.5032467842102051
 11
0.6006492674350739
 21
9.1103894710540771
 72
     1
 10
0.6006492674350739
 20
9.1103894710540771
 11
0.6655843555927277
 21
9.8733766078948975
 72
     1
 10
1.0064934194087982
 20
10.555194735527039
 11
1.5097402036190033
 21
10.766233921051025
 72
     1
 10
1.5097402036190033
 20
10.766233921051025
 11
1.5097402036190033
 21
10.896104097366333
 72
     1
 10
1.5097402036190033
 20
10.896104097366333
 11
0.0
 21
10.896104097366333
 72
     1
 10
0.0
 20
10.896104097366333
 11
-1.5097402408719063
 21
10.896104097366333
 72
     1
 10
-1.5097402408719063
 20
10.896104097366333
 11
-1.4285708218812943
 21
10.766233921051025
 97
        0
 75
     0
 76
     1
 52
0.0
 41
4.0
 77
     0
 78
     1
 53
0.0
 43
0.0
 44
0.0
 45
0.1248
 46
0.25
 79
     2
 49
0.0
 49
-0.25
 98
        1
 10
0.0
 20
0.0
  0
ENDBLK
  5
322
100
AcDbEntity
  8
0
390
0
100
AcDbBlockEnd
  0
BLOCK
  5
332
100
AcDbEntity
  8
0
390
0
100
AcDbBlockBegin
  2
arrwhead
 70
     0
 10
0.0
 20
0.0
 30
0.0
  3
arrwhead
  1

  0
POLYLINE
  5
333
100
AcDbEntity
  8
hidden positions
370
     0
390
0
  6
Continuous
 62
   134
100
AcDb2dPolyline
 66
     1
 10
0.0
 20
0.0
 30
0.0
 70
   129
  0
VERTEX
  5
334
100
AcDbEntity
  8
hidden positions
370
     0
390
0
  6
Continuous
 62
   134
100
AcDbVertex
100
AcDb2dVertex
 10
1.0
 20
0.0
 30
0.0
  0
VERTEX
  5
335
100
AcDbEntity
  8
hidden positions
370
     0
390
0
  6
Continuous
 62
   134
100
AcDbVertex
100
AcDb2dVertex
 10
0.0
 20
-1.0
 30
0.0
  0
VERTEX
  5
336
100
AcDbEntity
  8
hidden positions
370
     0
390
0
  6
Continuous
 62
   134
100
AcDbVertex
100
AcDb2dVertex
 10
0.0
 20
1.0
 30
0.0
  0
VERTEX
  5
337
100
AcDbEntity
  8
hidden positions
370
     0
390
0
  6
Continuous
 62
   134
100
AcDbVertex
100
AcDb2dVertex
 10
1.0
 20
0.0
 30
0.0
  0
SEQEND
  5
338
100
AcDbEntity
  8
hidden positions
370
     0
390
0
  6
Continuous
 62
   134
  0
HATCH
  5
339
100
AcDbEntity
  8
hidden positions
370
     0
390
0
  6
Continuous
 62
   134
100
AcDbHatch
 10
0.0
 20
0.0
 30
0.0
210
0.0
220
0.0
230
1.0
  2
SOLID
 70
     1
 71
     0
 91
        1
 92
        1
 93
        3
 72
     1
 10
1.0
 20
0.0
 11
0.0
 21
-1.0
 72
     1
 10
0.0
 20
-1.0
 11
0.0
 21
1.0
 72
     1
 10
0.0
 20
1.0
 11
1.0
 21
0.0
 97
        0
 75
     0
 76
     1
 98
        1
 10
0.0
 20
0.0
  0
ENDBLK
  5
33A
100
AcDbEntity
  8
0
390
0
100
AcDbBlockEnd
  0
ENDSEC
  0
SECTION
  2
ENTITIES
  0
VIEWPORT
  5
44
100
AcDbEntity
 67
     1
  8
0
390
0
  6
Continuous
 62
     0
100
AcDbViewport
 10
4.5
 20
3.259162
 30
0.0
 40
12.857143
 41
9.311892
 68
     1
 69
     1
 12
762.9316
 22
546.5183
 13
1169.457242
 23
377.488
 14
0.5
 24
0.5
 15
12.0
 25
12.0
 16
0.0
 26
0.0
 36
1.0
 17
0.0
 27
0.0
 37
0.0
 42
50.0
 43
-55.0
 44
-55.0
 45
1084.5
 50
0.0
 51
0.0
 72
   500
 90
        0
340
0
  1

281
     0
 71
     1
 74
     0
110
0.0
120
0.0
130
0.0
111
1.0
121
0.0
131
0.0
112
0.0
122
1.0
132
0.0
345
0
346
0
 79
     0
146
0.0
  0
ARC
  5
45
100
AcDbEntity
  8
border
370
     0
390
0
  6
Continuous
 62
   174
100
AcDbCircle
 10
92.650371
 20
-1003.640019
 30
0.0
 40
7.59375
100
AcDbArc
 50
270.0
 51
360.0
  0
ARC
  5
46
100
AcDbEntity
  8
border
370
     0
390
0
  6
Continuous
 62
   174
100
AcDbCircle
 10
97.560617
 20
-993.515019
 30
0.0
 40
10.125
100
AcDbArc
 50
270.0
 51
360.0
  0
ARC
  5
47
100
AcDbEntity
  8
border
370
    30
390
0
  6
Continuous
 62
    14
100
AcDbCircle
 10
92.650371
 20
-1003.640019
 30
0.0
 40
10.125
100
AcDbArc
 50
270.0
 51
360.0
  0
ARC
  5
48
100
AcDbEntity
  8
border
370
    30
390
0
  6
Continuous
 62
    14
100
AcDbCircle
 10
97.560617
 20
-993.515019
 30
0.0
 40
12.65625
100
AcDbArc
 50
270.0
 51
360.0
  0
ARC
  5
49
100
AcDbEntity
  8
border
370
     0
390
0
  6
Continuous
 62
   174
100
AcDbCircle
 10
-388.064387
 20
-1003.608925
 30
0.0
 40
7.59375
100
AcDbArc
 50
180.0
 51
270.0
  0
ARC
  5
4A
100
AcDbEntity
  8
border
370
     0
390
0
  6
Continuous
 62
   174
100
AcDbCircle
 10
-393.126887
 20
-993.483925
 30
0.0
 40
10.125
100
AcDbArc
 50
180.0
 51
270.0
  0
ARC
  5
4B
100
AcDbEntity
  8
border
370
    30
390
0
  6
Continuous
 62
    14
100
AcDbCircle
 10
-388.064387
 20
-1003.608925
 30
0.0
 40
10.125
100
AcDbArc
 50
180.0
 51
270.0
  0
ARC
  5
4C
100
AcDbEntity
  8
border
370
    30
390
0
  6
Continuous
 62
    14
100
AcDbCircle
 10
-393.126887
 20
-993.483925
 30
0.0
 40
12.65625
100
AcDbArc
 50
180.0
 51
270.0
  0
ARC
  5
4D
100
AcDbEntity
  8
border
370
     0
390
0
  6
Continuous
 62
   174
100
AcDbCircle
 10
92.650371
 20
-603.847625
 30
0.0
 40
7.59375
100
AcDbArc
 50
0.0
 51
90.0
  0
ARC
  5
4E
100
AcDbEntity
  8
border
370
     0
390
0
  6
Continuous
 62
   174
100
AcDbCircle
 10
97.560617
 20
-613.824571
 30
0.0
 40
10.125
100
AcDbArc
 50
0.0
 51
90.0
  0
ARC
  5
4F
100
AcDbEntity
  8
border
370
    30
390
0
  6
Continuous
 62
    14
100
AcDbCircle
 10
97.560617
 20
-613.824571
 30
0.0
 40
12.65625
100
AcDbArc
 50
0.0
 51
90.0
  0
ARC
  5
50
100
AcDbEntity
  8
border
370
    30
390
0
  6
Continuous
 62
    14
100
AcDbCircle
 10
92.650371
 20
-603.847625
 30
0.0
 40
10.125
100
AcDbArc
 50
0.0
 51
90.0
  0
ARC
  5
51
100
AcDbEntity
  8
border
370
     0
390
0
  6
Continuous
 62
   174
100
AcDbCircle
 10
-388.064382
 20
-603.916378
 30
0.0
 40
7.59375
100
AcDbArc
 50
90.0
 51
180.0
  0
ARC
  5
52
100
AcDbEntity
  8
border
370
    30
390
0
  6
Continuous
 62
    14
100
AcDbCircle
 10
-388.064382
 20
-603.916378
 30
0.0
 40
10.125
100
AcDbArc
 50
90.0
 51
180.0
  0
ARC
  5
53
100
AcDbEntity
  8
border
370
     0
390
0
  6
Continuous
 62
   174
100
AcDbCircle
 10
-393.126882
 20
-613.849822
 30
0.0
 40
10.125
100
AcDbArc
 50
90.0
 51
180.0
  0
ARC
  5
54
100
AcDbEntity
  8
border
370
    30
390
0
  6
Continuous
 62
    14
100
AcDbCircle
 10
-393.126882
 20
-613.849822
 30
0.0
 40
12.65625
100
AcDbArc
 50
90.0
 51
180.0
  0
LINE
  5
55
100
AcDbEntity
  8
border
370
     0
390
0
  6
Continuous
 62
   174
100
AcDbLine
 10
97.560617
 20
-603.699571
 30
0.0
 11
-393.126882
 21
-603.724822
 31
0.0
  0
LINE
  5
56
100
AcDbEntity
  8
border
370
    30
390
0
  6
Continuous
 62
    14
100
AcDbLine
 10
97.560617
 20
-601.168321
 30
0.0
 11
-393.126882
 21
-601.193572
 31
0.0
  0
LINE
  5
57
100
AcDbEntity
  8
border
370
     0
390
0
  6
Continuous
 62
   174
100
AcDbLine
 10
92.650371
 20
-596.253875
 30
0.0
 11
-388.064382
 21
-596.322628
 31
0.0
  0
LINE
  5
58
100
AcDbEntity
  8
border
370
    30
390
0
  6
Continuous
 62
    14
100
AcDbLine
 10
92.650371
 20
-593.722625
 30
0.0
 11
-388.064382
 21
-593.791378
 31
0.0
  0
LINE
  5
59
100
AcDbEntity
  8
border
370
    30
390
0
  6
Continuous
 62
    14
100
AcDbLine
 10
-405.783137
 20
-993.483925
 30
0.0
 11
-405.783132
 21
-613.849822
 31
0.0
  0
LINE
  5
5A
100
AcDbEntity
  8
border
370
     0
390
0
  6
Continuous
 62
   174
100
AcDbLine
 10
-403.251887
 20
-993.483925
 30
0.0
 11
-403.251882
 21
-613.849822
 31
0.0
  0
LINE
  5
5B
100
AcDbEntity
  8
border
370
    30
390
0
  6
Continuous
 62
    14
100
AcDbLine
 10
-398.189387
 20
-1003.640019
 30
0.0
 11
-398.189382
 21
-603.916378
 31
0.0
  0
LINE
  5
5C
100
AcDbEntity
  8
border
370
     0
390
0
  6
Continuous
 62
   174
100
AcDbLine
 10
-395.658137
 20
-1003.608925
 30
0.0
 11
-395.658132
 21
-603.916378
 31
0.0
  0
LINE
  5
5D
100
AcDbEntity
  8
border
370
    30
390
0
  6
Continuous
 62
    14
100
AcDbLine
 10
97.560617
 20
-1006.171269
 30
0.0
 11
-393.126887
 21
-1006.171269
 31
0.0
  0
LINE
  5
5E
100
AcDbEntity
  8
border
370
     0
390
0
  6
Continuous
 62
   174
100
AcDbLine
 10
92.650371
 20
-1011.233769
 30
0.0
 11
-388.064387
 21
-1011.202675
 31
0.0
  0
LINE
  5
5F
100
AcDbEntity
  8
border
370
    30
390
0
  6
Continuous
 62
    14
100
AcDbLine
 10
92.650371
 20
-1013.765019
 30
0.0
 11
-388.064387
 21
-1013.733925
 31
0.0
  0
LINE
  5
60
100
AcDbEntity
  8
border
370
    30
390
0
  6
Continuous
 62
    14
100
AcDbLine
 10
110.216867
 20
-993.515019
 30
0.0
 11
110.216867
 21
-613.824571
 31
0.0
  0
LINE
  5
61
100
AcDbEntity
  8
border
370
     0
390
0
  6
Continuous
 62
   174
100
AcDbLine
 10
107.685617
 20
-993.515019
 30
0.0
 11
107.685617
 21
-613.824571
 31
0.0
  0
LINE
  5
62
100
AcDbEntity
  8
border
370
    30
390
0
  6
Continuous
 62
    14
100
AcDbLine
 10
102.775371
 20
-1003.640019
 30
0.0
 11
102.775371
 21
-603.847625
 31
0.0
  0
LINE
  5
63
100
AcDbEntity
  8
border
370
     0
390
0
  6
Continuous
 62
   174
100
AcDbLine
 10
100.244121
 20
-1003.640019
 30
0.0
 11
100.244121
 21
-603.847625
 31
0.0
  0
LINE
  5
64
100
AcDbEntity
  8
border
370
     0
390
0
  6
DOT
 62
    54
100
AcDbLine
 10
-423.783137
 20
-993.483925
 30
0.0
 11
-423.783133
 21
-613.849822
 31
0.0
  0
LINE
  5
65
100
AcDbEntity
  8
border
370
     0
390
0
  6
Continuous
 62
   174
100
AcDbLine
 10
97.560617
 20
-1003.640019
 30
0.0
 11
-393.126887
 21
-1003.679546
 31
0.0
  0
ARC
  5
66
100
AcDbEntity
  8
Title Block
370
     0
390
0
  6
Continuous
 62
   174
100
AcDbCircle
 10
-45.371654
 20
-991.897218
 30
0.0
 40
4.271484
100
AcDbArc
 50
180.0
 51
270.0
  0
ARC
  5
67
100
AcDbEntity
  8
Title Block
370
    30
390
0
  6
Continuous
 62
    14
100
AcDbCircle
 10
-45.371654
 20
-991.897218
 30
0.0
 40
5.695312
100
AcDbArc
 50
180.0
 51
270.0
  0
ARC
  5
68
100
AcDbEntity
  8
Title Block
370
     0
390
0
  6
Continuous
 62
   174
100
AcDbCircle
 10
-48.219311
 20
-986.549507
 30
0.0
 40
5.695313
100
AcDbArc
 50
180.0
 51
270.0
  0
ARC
  5
69
100
AcDbEntity
  8
Title Block
370
    30
390
0
  6
Continuous
 62
    14
100
AcDbCircle
 10
-48.219311
 20
-986.549507
 30
0.0
 40
7.119141
100
AcDbArc
 50
180.0
 51
270.0
  0
ARC
  5
6A
100
AcDbEntity
  8
Title Block
370
     0
390
0
  6
Continuous
 62
   174
100
AcDbCircle
 10
84.223433
 20
-991.897218
 30
0.0
 40
4.271484
100
AcDbArc
 50
270.0
 51
360.0
  0
ARC
  5
6B
100
AcDbEntity
  8
Title Block
370
     0
390
0
  6
Continuous
 62
   174
100
AcDbCircle
 10
87.07109
 20
-986.549507
 30
0.0
 40
5.695313
100
AcDbArc
 50
270.0
 51
360.0
  0
ARC
  5
6C
100
AcDbEntity
  8
Title Block
370
    30
390
0
  6
Continuous
 62
    14
100
AcDbCircle
 10
84.223433
 20
-991.897218
 30
0.0
 40
5.695312
100
AcDbArc
 50
270.0
 51
360.0
  0
ARC
  5
6D
100
AcDbEntity
  8
Title Block
370
    30
390
0
  6
Continuous
 62
    14
100
AcDbCircle
 10
87.07109
 20
-986.549507
 30
0.0
 40
7.119141
100
AcDbArc
 50
270.0
 51
360.0
  0
LINE
  5
6E
100
AcDbEntity
  8
Title Block
370
     0
390
0
  6
Continuous
 62
   174
100
AcDbLine
 10
-48.219311
 20
-992.244819
 30
0.0
 11
87.07109
 21
-992.244819
 31
0.0
  0
LINE
  5
6F
100
AcDbEntity
  8
Title Block
370
    30
390
0
  6
Continuous
 62
    14
100
AcDbLine
 10
-48.219311
 20
-993.668647
 30
0.0
 11
87.07109
 21
-993.668647
 31
0.0
  0
LINE
  5
70
100
AcDbEntity
  8
Title Block
370
     0
390
0
  6
Continuous
 62
   174
100
AcDbLine
 10
-45.371654
 20
-996.168702
 30
0.0
 11
84.223433
 21
-996.168702
 31
0.0
  0
LINE
  5
71
100
AcDbEntity
  8
Title Block
370
    30
390
0
  6
Continuous
 62
    14
100
AcDbLine
 10
-45.371654
 20
-997.59253
 30
0.0
 11
84.223433
 21
-997.59253
 31
0.0
  0
ARC
  5
72
100
AcDbEntity
  8
Title Block
370
     0
390
0
  6
Continuous
 62
   174
100
AcDbCircle
 10
-45.371654
 20
-946.293032
 30
0.0
 40
4.271484
100
AcDbArc
 50
90.0
 51
180.0
  0
ARC
  5
73
100
AcDbEntity
  8
Title Block
370
     0
390
0
  6
Continuous
 62
   174
100
AcDbCircle
 10
-48.219311
 20
-951.988344
 30
0.0
 40
5.695313
100
AcDbArc
 50
90.0
 51
180.0
  0
ARC
  5
74
100
AcDbEntity
  8
Title Block
370
    30
390
0
  6
Continuous
 62
    14
100
AcDbCircle
 10
-45.371654
 20
-946.293032
 30
0.0
 40
5.695312
100
AcDbArc
 50
90.0
 51
180.0
  0
ARC
  5
75
100
AcDbEntity
  8
Title Block
370
    30
390
0
  6
Continuous
 62
    14
100
AcDbCircle
 10
-48.219311
 20
-951.988344
 30
0.0
 40
7.119141
100
AcDbArc
 50
90.0
 51
180.0
  0
ARC
  5
76
100
AcDbEntity
  8
Title Block
370
     0
390
0
  6
Continuous
 62
   174
100
AcDbCircle
 10
84.223433
 20
-946.293032
 30
0.0
 40
4.271484
100
AcDbArc
 50
360.0
 51
450.0
  0
ARC
  5
77
100
AcDbEntity
  8
Title Block
370
     0
390
0
  6
Continuous
 62
   174
100
AcDbCircle
 10
87.07109
 20
-951.988344
 30
0.0
 40
5.695313
100
AcDbArc
 50
360.0
 51
450.0
  0
ARC
  5
78
100
AcDbEntity
  8
Title Block
370
    30
390
0
  6
Continuous
 62
    14
100
AcDbCircle
 10
84.223433
 20
-946.293032
 30
0.0
 40
5.695312
100
AcDbArc
 50
360.0
 51
450.0
  0
ARC
  5
79
100
AcDbEntity
  8
Title Block
370
    30
390
0
  6
Continuous
 62
    14
100
AcDbCircle
 10
87.07109
 20
-951.988344
 30
0.0
 40
7.119141
100
AcDbArc
 50
360.0
 51
450.0
  0
LINE
  5
7A
100
AcDbEntity
  8
Title Block
370
    30
390
0
  6
Continuous
 62
    14
100
AcDbLine
 10
-45.371654
 20
-940.597719
 30
0.0
 11
84.223433
 21
-940.597719
 31
0.0
  0
LINE
  5
7B
100
AcDbEntity
  8
Title Block
370
     0
390
0
  6
Continuous
 62
   174
100
AcDbLine
 10
-45.371654
 20
-942.021547
 30
0.0
 11
84.223433
 21
-942.021547
 31
0.0
  0
LINE
  5
7C
100
AcDbEntity
  8
Title Block
370
    30
390
0
  6
Continuous
 62
    14
100
AcDbLine
 10
-48.219311
 20
-944.869204
 30
0.0
 11
87.07109
 21
-944.869204
 31
0.0
  0
LINE
  5
7D
100
AcDbEntity
  8
Title Block
370
    30
390
0
  6
Continuous
 62
    14
100
AcDbLine
 10
26.359129
 20
-992.244819
 30
0.0
 11
26.359129
 21
-946.293032
 31
0.0
  0
LINE
  5
7E
100
AcDbEntity
  8
Title Block
370
    30
390
0
  6
Continuous
 62
    14
100
AcDbLine
 10
94.19023
 20
-986.549507
 30
0.0
 11
94.19023
 21
-951.988344
 31
0.0
  0
LINE
  5
7F
100
AcDbEntity
  8
Title Block
370
     0
390
0
  6
Continuous
 62
   174
100
AcDbLine
 10
92.766402
 20
-986.549507
 30
0.0
 11
92.766402
 21
-951.988344
 31
0.0
  0
LINE
  5
80
100
AcDbEntity
  8
Title Block
370
    30
390
0
  6
Continuous
 62
    14
100
AcDbLine
 10
89.918746
 20
-992.005382
 30
0.0
 11
89.918746
 21
-946.293032
 31
0.0
  0
LINE
  5
81
100
AcDbEntity
  8
Title Block
370
     0
390
0
  6
Continuous
 62
   174
100
AcDbLine
 10
88.494918
 20
-992.244819
 30
0.0
 11
88.494918
 21
-946.293032
 31
0.0
  0
LINE
  5
82
100
AcDbEntity
  8
Title Block
370
     0
390
0
  6
Continuous
 62
     7
100
AcDbLine
 10
-48.219311
 20
-946.293032
 30
0.0
 11
87.07109
 21
-946.297502
 31
0.0
  0
LINE
  5
83
100
AcDbEntity
  8
Title Block
370
    30
390
0
  6
Continuous
 62
    14
100
AcDbLine
 10
-55.338451
 20
-986.549507
 30
0.0
 11
-55.338451
 21
-951.988344
 31
0.0
  0
LINE
  5
84
100
AcDbEntity
  8
Title Block
370
     0
390
0
  6
Continuous
 62
   174
100
AcDbLine
 10
-53.914623
 20
-986.904756
 30
0.0
 11
-53.914623
 21
-951.988344
 31
0.0
  0
LINE
  5
85
100
AcDbEntity
  8
Title Block
370
    30
390
0
  6
Continuous
 62
    14
100
AcDbLine
 10
-51.066967
 20
-991.897218
 30
0.0
 11
-51.066967
 21
-946.293032
 31
0.0
  0
LINE
  5
86
100
AcDbEntity
  8
Title Block
370
     0
390
0
  6
Continuous
 62
   174
100
AcDbLine
 10
-49.643139
 20
-991.897218
 30
0.0
 11
-49.643139
 21
-946.293032
 31
0.0
  0
ELLIPSE
  5
87
100
AcDbEntity
  8
Title Block
370
     0
390
0
  6
Continuous
 62
     1
100
AcDbEllipse
 10
12.17974
 20
-985.820825
 30
0.0
 11
-11.940949293432325
 21
0.0
 31
0.0
210
0.0
220
0.0
230
1.0
 40
0.42548
 41
0.0
 42
6.2831853071795862
  0
ELLIPSE
  5
88
100
AcDbEntity
  8
Title Block
370
     0
390
0
  6
Continuous
 62
     1
100
AcDbEllipse
 10
10.925705
 20
-985.820825
 30
0.0
 11
-11.940949293432244
 21
0.0
 31
0.0
210
0.0
220
0.0
230
1.0
 40
0.42548
 41
0.0
 42
6.2831853071795862
  0
TEXT
  5
8A
100
AcDbEntity
  8
Title Block
370
     0
390
0
  6
Continuous
 62
   174
100
AcDbText
 10
8.274087
 20
-987.279179
 30
0.0
 40
3.344095
  1
" = 1'
  7
Vcadd_HandPrnt
100
AcDbText
  0
TEXT
  5
8B
100
AcDbEntity
  8
Title Block
370
     0
390
0
  6
Continuous
 62
   174
100
AcDbText
 10
2.926452
 20
-987.531241
 30
0.0
 40
5.871662
  1
2
  7
Vcadd_HandPrnt
 72
     2
 11
6.85898
 21
-987.531241
 31
0.0
100
AcDbText
  0
ELLIPSE
  5
8C
100
AcDbEntity
  8
Title Block
370
     0
390
0
  6
Continuous
 62
   174
100
AcDbEllipse
 10
74.645671
 20
-985.820825
 30
0.0
 11
-10.424283782718589
 21
0.0
 31
0.0
210
0.0
220
0.0
230
1.0
 40
0.487385
 41
0.0
 42
6.2831853071795862
  0
ELLIPSE
  5
8D
100
AcDbEntity
  8
Title Block
370
     0
390
0
  6
Continuous
 62
   174
100
AcDbEllipse
 10
75.832195
 20
-985.820825
 30
0.0
 11
-10.424283782718589
 21
0.0
 31
0.0
210
0.0
220
0.0
230
1.0
 40
0.487385
 41
0.0
 42
6.2831853071795862
  0
TEXT
  5
8E
100
AcDbEntity
  8
Title Block
370
     0
390
0
  6
Continuous
 62
   174
100
AcDbText
 10
67.834018
 20
-985.236794
 30
0.0
 40
2.373047
  1
Page #1
  7
Vcadd_HandPrnt
 72
     1
 11
75.051296
 21
-985.236794
 31
0.0
100
AcDbText
  0
TEXT
  5
8F
100
AcDbEntity
  8
Title Block
370
     0
390
0
  6
Continuous
 62
   174
100
AcDbText
 10
71.238494
 20
-988.796364
 30
0.0
 40
2.373047
  1
of 2
  7
Vcadd_HandPrnt
 72
     1
 11
75.051296
 21
-988.796364
 31
0.0
100
AcDbText
  0
TEXT
  5
90
100
AcDbEntity
  8
Title Block
370
     0
390
0
  6
Continuous
 62
   174
100
AcDbText
 10
68.508746
 20
-966.283609
 30
0.0
 40
1.5
  1
(917) 238-7430
  7
Vcadd_HandPrnt
 72
     2
 11
86.253831
 21
-966.283609
 31
0.0
100
AcDbText
  0
TEXT
  5
91
100
AcDbEntity
  8
Title Block
370
     0
390
0
  6
Continuous
 62
   174
100
AcDbText
 10
60.378472
 20
-968.533609
 30
0.0
 40
1.5
  1
jeff@jeffsalzberg.com
  7
Vcadd_HandPrnt
 72
     2
 11
86.253831
 21
-968.533609
 31
0.0
100
AcDbText
  0
TEXT
  5
92
100
AcDbEntity
  8
Title Block
370
     0
390
0
  6
Continuous
 62
   174
100
AcDbText
 10
53.010784
 20
-970.783609
 30
0.0
 40
1.5
  1
http://www.jeffsalzberg.com
  7
Vcadd_HandPrnt
 72
     2
 11
86.253831
 21
-970.783609
 31
0.0
100
AcDbText
  0
TEXT
  5
93
100
AcDbEntity
  8
Title Block
370
     0
390
0
  6
Continuous
 62
   174
100
AcDbText
 10
51.823814
 20
-952.44049
 30
0.0
 40
2.25
  1
Jeffrey E. Salzberg,
  7
Vcadd_HandPrnt
 72
     2
 11
86.259997
 21
-952.44049
 31
0.0
100
AcDbText
  0
TEXT
  5
94
100
AcDbEntity
  8
Title Block
370
     0
390
0
  6
Continuous
 62
   174
100
AcDbText
 10
56.677279
 20
-955.81549
 30
0.0
 40
2.25
  1
Lighting Designer
  7
Vcadd_HandPrnt
 72
     2
 11
86.259997
 21
-955.81549
 31
0.0
100
AcDbText
  0
TEXT
  5
95
100
AcDbEntity
  8
Title Block
370
     0
390
0
  6
Continuous
 62
   174
100
AcDbText
 10
64.464568
 20
-959.19049
 30
0.0
 40
2.25
  1
March, 2006
  7
Vcadd_HandPrnt
 72
     2
 11
86.259997
 21
-959.19049
 31
0.0
100
AcDbText
  0
TEXT
  5
96
100
AcDbEntity
  8
Title Block
370
     0
390
0
  6
Continuous
 62
   174
100
AcDbText
 10
-8.908132
 20
-954.259855
 30
0.0
 40
2.25
  1
Overhead Electrics
  7
Vcadd_HandPrnt
 72
     2
 11
24.143482
 21
-954.259855
 31
0.0
100
AcDbText
  0
TEXT
  5
97
100
AcDbEntity
  8
Title Block
370
     0
390
0
  6
Continuous
 62
   174
100
AcDbText
 10
-2.143493
 20
-967.266323
 30
0.0
 40
2.25
  1
Altered Stages
  7
Vcadd_HandPrnt
 72
     2
 11
24.112113
 21
-967.266323
 31
0.0
100
AcDbText
  0
TEXT
  5
98
100
AcDbEntity
  8
Title Block
370
     0
390
0
  6
Continuous
 62
   174
100
AcDbText
 10
0.711664
 20
-970.641323
 30
0.0
 40
2.25
  1
New York, NY
  7
Vcadd_HandPrnt
 72
     2
 11
24.112113
 21
-970.641323
 31
0.0
100
AcDbText
  0
TEXT
  5
99
100
AcDbEntity
  8
Title Block
370
     0
390
0
  6
Continuous
 62
   174
100
AcDbText
 10
-7.457596
 20
-961.364319
 30
0.0
 40
2.25
  1
Version:
  7
Vcadd_HandPrnt
100
AcDbText
  0
LINE
  5
9A
100
AcDbEntity
  8
0
370
     0
390
0
  6
Continuous
 62
     2
100
AcDbLine
 10
-385.110836
 20
-612.981854
 30
0.0
 11
-385.110836
 21
-702.748687
 31
0.0
  0
LINE
  5
9C
100
AcDbEntity
  8
0
370
     0
390
0
  6
REALLY_WIDE_DOT
 62
     8
100
AcDbLine
 10
-313.238869
 20
-808.12205
 30
0.0
 11
-281.908387
 21
-808.12205
 31
0.0
  0
POLYLINE
  5
9D
100
AcDbEntity
  8
0
370
     0
390
0
  6
REALLY_WIDE_DOT
 62
     8
100
AcDb2dPolyline
 66
     1
 10
0.0
 20
0.0
 30
0.0
 70
   128
  0
VERTEX
  5
9E
100
AcDbEntity
  8
0
370
     0
390
0
  6
REALLY_WIDE_DOT
 62
     8
100
AcDbVertex
100
AcDb2dVertex
 10
-318.22813
 20
-804.850899
 30
0.0
  0
VERTEX
  5
9F
100
AcDbEntity
  8
0
370
     0
390
0
  6
REALLY_WIDE_DOT
 62
     8
100
AcDbVertex
100
AcDb2dVertex
 10
-385.110836
 20
-804.850899
 30
0.0
  0
VERTEX
  5
A0
100
AcDbEntity
  8
0
370
     0
390
0
  6
REALLY_WIDE_DOT
 62
     8
100
AcDbVertex
100
AcDb2dVertex
 10
-385.110836
 20
-808.12205
 30
0.0
  0
VERTEX
  5
A1
100
AcDbEntity
  8
0
370
     0
390
0
  6
REALLY_WIDE_DOT
 62
     8
100
AcDbVertex
100
AcDb2dVertex
 10
-317.343294
 20
-808.12205
 30
0.0
  0
SEQEND
  5
A2
100
AcDbEntity
  8
0
370
     0
390
0
  6
REALLY_WIDE_DOT
 62
     8
  0
LINE
  5
A3
100
AcDbEntity
  8
0
370
     0
390
0
  6
REALLY_WIDE_DOT
 62
     8
100
AcDbLine
 10
-282.856724
 20
-804.850899
 30
0.0
 11
-312.354033
 21
-804.850899
 31
0.0
  0
LINE
  5
A4
100
AcDbEntity
  8
0
370
     0
390
0
  6
REALLY_WIDE_DOT
 62
     8
100
AcDbLine
 10
-277.903387
 20
-808.12205
 30
0.0
 11
-187.611538
 21
-808.12205
 31
0.0
  0
LINE
  5
A5
100
AcDbEntity
  8
0
370
     0
390
0
  6
REALLY_WIDE_DOT
 62
     8
100
AcDbLine
 10
-183.894792
 20
-808.12205
 30
0.0
 11
-93.530734
 21
-808.12205
 31
0.0
  0
LINE
  5
A6
100
AcDbEntity
  8
0
370
     0
390
0
  6
REALLY_WIDE_DOT
 62
     8
100
AcDbLine
 10
-188.737436
 20
-804.850899
 30
0.0
 11
-276.955051
 21
-804.850899
 31
0.0
  0
LINE
  5
A7
100
AcDbEntity
  8
0
370
     0
390
0
  6
REALLY_WIDE_DOT
 62
     8
100
AcDbLine
 10
-94.178884
 20
-804.850899
 30
0.0
 11
-182.768895
 21
-804.850899
 31
0.0
  0
LINE
  5
A8
100
AcDbEntity
  8
0
370
     0
390
0
  6
REALLY_WIDE_DOT
 62
     8
100
AcDbLine
 10
-313.238869
 20
-668.197412
 30
0.0
 11
-281.908387
 21
-668.197412
 31
0.0
  0
ARC
  5
A9
100
AcDbEntity
  8
0
370
     0
390
0
  6
REALLY_WIDE_DOT
 62
     8
100
AcDbCircle
 10
-91.302651
 20
-666.056149
 30
0.0
 40
3.090205
100
AcDbArc
 50
21.446683
 51
158.553317
  0
ARC
  5
AA
100
AcDbEntity
  8
0
370
     0
390
0
  6
REALLY_WIDE_DOT
 62
     8
100
AcDbCircle
 10
-185.753165
 20
-665.728442
 30
0.0
 40
3.090205
100
AcDbArc
 50
15.045626
 51
164.954374
  0
POLYLINE
  5
AB
100
AcDbEntity
  8
0
370
     0
390
0
  6
REALLY_WIDE_DOT
 62
     8
100
AcDb2dPolyline
 66
     1
 10
0.0
 20
0.0
 30
0.0
 70
   128
  0
VERTEX
  5
AC
100
AcDbEntity
  8
0
370
     0
390
0
  6
REALLY_WIDE_DOT
 62
     8
100
AcDbVertex
100
AcDb2dVertex
 10
-318.22813
 20
-664.926261
 30
0.0
  0
VERTEX
  5
AD
100
AcDbEntity
  8
0
370
     0
390
0
  6
REALLY_WIDE_DOT
 62
     8
100
AcDbVertex
100
AcDb2dVertex
 10
-385.110836
 20
-664.926261
 30
0.0
  0
VERTEX
  5
AE
100
AcDbEntity
  8
0
370
     0
390
0
  6
REALLY_WIDE_DOT
 62
     8
100
AcDbVertex
100
AcDb2dVertex
 10
-385.110836
 20
-668.197412
 30
0.0
  0
VERTEX
  5
AF
100
AcDbEntity
  8
0
370
     0
390
0
  6
REALLY_WIDE_DOT
 62
     8
100
AcDbVertex
100
AcDb2dVertex
 10
-317.343294
 20
-668.197412
 30
0.0
  0
SEQEND
  5
B0
100
AcDbEntity
  8
0
370
     0
390
0
  6
REALLY_WIDE_DOT
 62
     8
  0
LINE
  5
B1
100
AcDbEntity
  8
0
370
     0
390
0
  6
REALLY_WIDE_DOT
 62
     8
100
AcDbLine
 10
-282.856724
 20
-664.926261
 30
0.0
 11
-312.354033
 21
-664.926261
 31
0.0
  0
LINE
  5
B2
100
AcDbEntity
  8
0
370
     0
390
0
  6
REALLY_WIDE_DOT
 62
     8
100
AcDbLine
 10
-277.903387
 20
-668.197412
 30
0.0
 11
-187.611538
 21
-668.197412
 31
0.0
  0
LINE
  5
B3
100
AcDbEntity
  8
0
370
     0
390
0
  6
REALLY_WIDE_DOT
 62
     8
100
AcDbLine
 10
-183.894792
 20
-668.197412
 30
0.0
 11
-93.530734
 21
-668.197412
 31
0.0
  0
LINE
  5
B4
100
AcDbEntity
  8
0
370
     0
390
0
  6
REALLY_WIDE_DOT
 62
     8
100
AcDbLine
 10
-94.178884
 20
-664.926261
 30
0.0
 11
-182.768895
 21
-664.926261
 31
0.0
  0
ARC
  5
B5
100
AcDbEntity
  8
0
370
     0
390
0
  6
REALLY_WIDE_DOT
 62
     8
100
AcDbCircle
 10
-185.753165
 20
-665.728442
 30
0.0
 40
3.090205
100
AcDbArc
 50
233.031534
 51
306.968466
  0
ARC
  5
B6
100
AcDbEntity
  8
0
370
     0
390
0
  6
REALLY_WIDE_DOT
 62
     8
100
AcDbCircle
 10
-91.302651
 20
-666.056149
 30
0.0
 40
3.090205
100
AcDbArc
 50
223.861659
 51
316.138341
  0
LINE
  5
B7
100
AcDbEntity
  8
0
370
     0
390
0
  6
Continuous
 62
     8
100
AcDbLine
 10
-188.737436
 20
-664.926261
 30
0.0
 11
-276.955051
 21
-664.926261
 31
0.0
  0
LINE
  5
B8
100
AcDbEntity
  8
hidden positions
370
     0
390
0
100
AcDbLine
 10
-381.62726
 20
-744.834596
 30
0.0
 11
-27.965475
 21
-744.834596
 31
0.0
  0
LINE
  5
B9
100
AcDbEntity
  8
hidden positions
370
     0
390
0
100
AcDbLine
 10
-381.62726
 20
-743.834596
 30
0.0
 11
-27.965475
 21
-743.834596
 31
0.0
  0
LINE
  5
BA
100
AcDbEntity
  8
hidden positions
370
     0
390
0
100
AcDbLine
 10
-381.62726
 20
-745.834596
 30
0.0
 11
-27.965475
 21
-745.834596
 31
0.0
  0
LINE
  5
BB
100
AcDbEntity
  8
0
370
     0
390
0
  6
Continuous
 62
     7
100
AcDbLine
 10
-385.110836
 20
-876.663807
 30
0.0
 11
-385.110836
 21
-742.110652
 31
0.0
  0
LINE
  5
BC
100
AcDbEntity
  8
0
370
     0
390
0
  6
Continuous
 62
     7
100
AcDbLine
 10
-388.103064
 20
-609.989626
 30
0.0
 11
-388.103064
 21
-702.748687
 31
0.0
  0
LINE
  5
BD
100
AcDbEntity
  8
0
370
     0
390
0
  6
Continuous
 62
     7
100
AcDbLine
 10
-388.103064
 20
-742.110652
 30
0.0
 11
-385.110836
 21
-742.110652
 31
0.0
  0
LINE
  5
BE
100
AcDbEntity
  8
0
370
     0
390
0
  6
Continuous
 62
     7
100
AcDbLine
 10
-388.103064
 20
-879.656035
 30
0.0
 11
-388.103064
 21
-742.110652
 31
0.0
  0
LINE
  5
C0
100
AcDbEntity
  8
0
370
     0
390
0
  6
DASHED
 62
     7
100
AcDbLine
 10
-388.103064
 20
-702.748687
 30
0.0
 11
-388.103064
 21
-742.110652
 31
0.0
  0
LINE
  5
C1
100
AcDbEntity
  8
0
370
     0
390
0
  6
DASHED
 62
     7
100
AcDbLine
 10
-385.110836
 20
-702.748687
 30
0.0
 11
-385.110836
 21
-742.110652
 31
0.0
  0
LINE
  5
C2
100
AcDbEntity
  8
hidden positions
370
     0
390
0
100
AcDbLine
 10
-381.62726
 20
-833.599958
 30
0.0
 11
-27.965475
 21
-833.599958
 31
0.0
  0
LINE
  5
C3
100
AcDbEntity
  8
hidden positions
370
     0
390
0
100
AcDbLine
 10
-381.62726
 20
-832.599958
 30
0.0
 11
-27.965475
 21
-832.599958
 31
0.0
  0
LINE
  5
C4
100
AcDbEntity
  8
hidden positions
370
     0
390
0
100
AcDbLine
 10
-381.62726
 20
-834.599958
 30
0.0
 11
-27.965475
 21
-834.599958
 31
0.0
  0
LINE
  5
C5
100
AcDbEntity
  8
hidden positions
370
     0
390
0
100
AcDbLine
 10
-381.62726
 20
-647.461406
 30
0.0
 11
-27.965475
 21
-647.461406
 31
0.0
  0
LINE
  5
C6
100
AcDbEntity
  8
hidden positions
370
     0
390
0
100
AcDbLine
 10
-381.62726
 20
-648.461406
 30
0.0
 11
-27.965475
 21
-648.461406
 31
0.0
  0
LINE
  5
C7
100
AcDbEntity
  8
hidden positions
370
     0
390
0
100
AcDbLine
 10
-363.495321
 20
-874.908707
 30
0.0
 11
-363.495321
 21
-617.479012
 31
0.0
  0
LINE
  5
C8
100
AcDbEntity
  8
hidden positions
370
     0
390
0
100
AcDbLine
 10
-364.495321
 20
-874.908707
 30
0.0
 11
-364.495321
 21
-617.479012
 31
0.0
  0
LINE
  5
C9
100
AcDbEntity
  8
hidden positions
370
     0
390
0
100
AcDbLine
 10
-362.495321
 20
-874.908707
 30
0.0
 11
-362.495321
 21
-617.479012
 31
0.0
  0
LINE
  5
CA
100
AcDbEntity
  8
hidden positions
370
     0
390
0
100
AcDbLine
 10
-284.172753
 20
-874.908707
 30
0.0
 11
-284.172753
 21
-617.479012
 31
0.0
  0
LINE
  5
CB
100
AcDbEntity
  8
hidden positions
370
     0
390
0
100
AcDbLine
 10
-285.172753
 20
-874.908707
 30
0.0
 11
-285.172753
 21
-617.479012
 31
0.0
  0
LINE
  5
CC
100
AcDbEntity
  8
hidden positions
370
     0
390
0
100
AcDbLine
 10
-245.839003
 20
-874.908707
 30
0.0
 11
-245.839003
 21
-617.479012
 31
0.0
  0
LINE
  5
CD
100
AcDbEntity
  8
hidden positions
370
     0
390
0
100
AcDbLine
 10
-246.839003
 20
-874.908707
 30
0.0
 11
-246.839003
 21
-617.479012
 31
0.0
  0
LINE
  5
CE
100
AcDbEntity
  8
hidden positions
370
     0
390
0
100
AcDbLine
 10
-244.839003
 20
-874.908707
 30
0.0
 11
-244.839003
 21
-617.479012
 31
0.0
  0
LINE
  5
CF
100
AcDbEntity
  8
hidden positions
370
     0
390
0
100
AcDbLine
 10
-201.686739
 20
-874.908707
 30
0.0
 11
-201.686739
 21
-617.479012
 31
0.0
  0
LINE
  5
D0
100
AcDbEntity
  8
hidden positions
370
     0
390
0
100
AcDbLine
 10
-202.686739
 20
-874.908707
 30
0.0
 11
-202.686739
 21
-617.479012
 31
0.0
  0
LINE
  5
D1
100
AcDbEntity
  8
hidden positions
370
     0
390
0
100
AcDbLine
 10
-200.686739
 20
-874.908707
 30
0.0
 11
-200.686739
 21
-617.479012
 31
0.0
  0
LINE
  5
D2
100
AcDbEntity
  8
0
370
     0
390
0
  6
Continuous
 62
     1
100
AcDbLine
 10
-29.071926
 20
-666.561837
 30
0.0
 11
-27.571926
 21
-666.561837
 31
0.0
  0
LINE
  5
D3
100
AcDbEntity
  8
0
370
     0
390
0
  6
Continuous
 62
     1
100
AcDbLine
 10
-29.071926
 20
-666.561837
 30
0.0
 11
-30.571926
 21
-666.561837
 31
0.0
  0
LINE
  5
D4
100
AcDbEntity
  8
0
370
     0
390
0
  6
Continuous
 62
     1
100
AcDbLine
 10
-30.571926
 20
-666.561837
 30
0.0
 11
-29.250068
 21
-666.870388
 31
0.0
  0
LINE
  5
D5
100
AcDbEntity
  8
0
370
     0
390
0
  6
Continuous
 62
     1
100
AcDbLine
 10
-27.571926
 20
-666.561837
 30
0.0
 11
-28.893784
 21
-666.253286
 31
0.0
  0
LINE
  5
D6
100
AcDbEntity
  8
0
370
     0
390
0
  6
Continuous
 62
     1
100
AcDbLine
 10
-28.893784
 20
-666.253286
 30
0.0
 11
-25.205674
 21
-659.865292
 31
0.0
  0
LINE
  5
D7
100
AcDbEntity
  8
0
370
     0
390
0
  6
Continuous
 62
     1
100
AcDbLine
 10
-29.250068
 20
-666.870388
 30
0.0
 11
-32.303977
 21
-672.159913
 31
0.0
  0
LINE
  5
D8
100
AcDbEntity
  8
0
370
     0
390
0
  6
Continuous
 62
     1
100
AcDbLine
 10
-29.071926
 20
-806.486474
 30
0.0
 11
-27.571926
 21
-806.486474
 31
0.0
  0
LINE
  5
D9
100
AcDbEntity
  8
0
370
     0
390
0
  6
Continuous
 62
     1
100
AcDbLine
 10
-29.071926
 20
-806.486474
 30
0.0
 11
-30.571926
 21
-806.486474
 31
0.0
  0
LINE
  5
DA
100
AcDbEntity
  8
0
370
     0
390
0
  6
Continuous
 62
     1
100
AcDbLine
 10
-30.571926
 20
-806.486474
 30
0.0
 11
-29.250068
 21
-806.795025
 31
0.0
  0
LINE
  5
DB
100
AcDbEntity
  8
0
370
     0
390
0
  6
Continuous
 62
     1
100
AcDbLine
 10
-27.571926
 20
-806.486474
 30
0.0
 11
-28.893784
 21
-806.177923
 31
0.0
  0
LINE
  5
DC
100
AcDbEntity
  8
0
370
     0
390
0
  6
Continuous
 62
     1
100
AcDbLine
 10
-28.893784
 20
-806.177923
 30
0.0
 11
-25.205674
 21
-799.78993
 31
0.0
  0
LINE
  5
DD
100
AcDbEntity
  8
0
370
     0
390
0
  6
Continuous
 62
     1
100
AcDbLine
 10
-29.250068
 20
-806.795025
 30
0.0
 11
-32.303977
 21
-812.08455
 31
0.0
  0
LINE
  5
DE
100
AcDbEntity
  8
0
370
     0
390
0
  6
Continuous
 62
     1
100
AcDbLine
 10
-25.532028
 20
-878.510959
 30
0.0
 11
-24.032028
 21
-878.510959
 31
0.0
  0
LINE
  5
DF
100
AcDbEntity
  8
0
370
     0
390
0
  6
Continuous
 62
     1
100
AcDbLine
 10
-25.532028
 20
-878.510959
 30
0.0
 11
-27.032028
 21
-878.510959
 31
0.0
  0
LINE
  5
E0
100
AcDbEntity
  8
0
370
     0
390
0
  6
Continuous
 62
     1
100
AcDbLine
 10
-27.032028
 20
-878.510959
 30
0.0
 11
-25.71017
 21
-878.81951
 31
0.0
  0
LINE
  5
E1
100
AcDbEntity
  8
0
370
     0
390
0
  6
Continuous
 62
     1
100
AcDbLine
 10
-24.032028
 20
-878.510959
 30
0.0
 11
-25.353886
 21
-878.202408
 31
0.0
  0
LINE
  5
E2
100
AcDbEntity
  8
0
370
     0
390
0
  6
Continuous
 62
     1
100
AcDbLine
 10
-25.353886
 20
-878.202408
 30
0.0
 11
-21.665776
 21
-871.814415
 31
0.0
  0
LINE
  5
E3
100
AcDbEntity
  8
0
370
     0
390
0
  6
Continuous
 62
     1
100
AcDbLine
 10
-25.71017
 20
-878.81951
 30
0.0
 11
-28.764079
 21
-884.109035
 31
0.0
  0
LINE
  5
E4
100
AcDbEntity
  8
0
370
     0
390
0
  6
Continuous
 62
     7
100
AcDbLine
 10
-388.103064
 20
-609.989626
 30
0.0
 11
-24.465574
 21
-609.989626
 31
0.0
  0
LINE
  5
E5
100
AcDbEntity
  8
0
370
     0
390
0
  6
Continuous
 62
     7
100
AcDbLine
 10
-24.465574
 20
-609.989626
 30
0.0
 11
-388.103064
 21
-609.989626
 31
0.0
  0
LINE
  5
E6
100
AcDbEntity
  8
0
370
     0
390
0
  6
Continuous
 62
     7
100
AcDbLine
 10
-385.110836
 20
-876.663807
 30
0.0
 11
-24.465574
 21
-876.663807
 31
0.0
  0
LINE
  5
E7
100
AcDbEntity
  8
0
370
     0
390
0
  6
Continuous
 62
     7
100
AcDbLine
 10
-101.868293
 20
-876.663807
 30
0.0
 11
-24.465574
 21
-876.663807
 31
0.0
  0
LINE
  5
E8
100
AcDbEntity
  8
0
370
     0
390
0
  6
Continuous
 62
     7
100
AcDbLine
 10
-388.103064
 20
-879.656035
 30
0.0
 11
-26.193138
 21
-879.656035
 31
0.0
  0
LINE
  5
E9
100
AcDbEntity
  8
0
370
     0
390
0
  6
REALLY_WIDE_DOT
 62
     8
100
AcDbLine
 10
-89.074567
 20
-808.12205
 30
0.0
 11
-30.016226
 21
-808.12205
 31
0.0
  0
LINE
  5
EA
100
AcDbEntity
  8
0
370
     0
390
0
  6
REALLY_WIDE_DOT
 62
     8
100
AcDbLine
 10
-88.426417
 20
-804.850899
 30
0.0
 11
-28.127626
 21
-804.850899
 31
0.0
  0
LINE
  5
EB
100
AcDbEntity
  8
0
370
     0
390
0
  6
REALLY_WIDE_DOT
 62
     8
100
AcDbLine
 10
-89.074567
 20
-668.197412
 30
0.0
 11
-30.016226
 21
-668.197412
 31
0.0
  0
LINE
  5
EC
100
AcDbEntity
  8
0
370
     0
390
0
  6
REALLY_WIDE_DOT
 62
     8
100
AcDbLine
 10
-88.426417
 20
-664.926261
 30
0.0
 11
-28.127626
 21
-664.926261
 31
0.0
  0
LINE
  5
ED
100
AcDbEntity
  8
hidden positions
370
     0
390
0
100
AcDbLine
 10
-69.888442
 20
-874.908707
 30
0.0
 11
-69.888442
 21
-635.911446
 31
0.0
  0
LINE
  5
EE
100
AcDbEntity
  8
hidden positions
370
     0
390
0
100
AcDbLine
 10
-70.888442
 20
-874.908707
 30
0.0
 11
-70.888442
 21
-635.911446
 31
0.0
  0
LINE
  5
EF
100
AcDbEntity
  8
hidden positions
370
     0
390
0
100
AcDbLine
 10
-71.888442
 20
-874.908707
 30
0.0
 11
-71.888442
 21
-635.911446
 31
0.0
  0
LINE
  5
F0
100
AcDbEntity
  8
0
370
     0
390
0
  6
Continuous
 62
     1
100
AcDbLine
 10
-28.764079
 20
-617.434854
 30
0.0
 11
-26.193138
 21
-612.981854
 31
0.0
  0
LINE
  5
F1
100
AcDbEntity
  8
0
370
     0
390
0
  6
Continuous
 62
     1
100
AcDbLine
 10
-21.665776
 20
-605.140233
 30
0.0
 11
-24.465574
 21
-609.989626
 31
0.0
  0
LINE
  5
F2
100
AcDbEntity
  8
0
370
     0
390
0
  6
Continuous
 62
     1
100
AcDbLine
 10
-385.110836
 20
-696.065459
 30
0.0
 11
-385.110836
 21
-612.981854
 31
0.0
  0
LINE
  5
F3
100
AcDbEntity
  8
0
370
     0
390
0
  6
Continuous
 62
     1
100
AcDbLine
 10
-93.865369
 20
-612.981854
 30
0.0
 11
-93.865369
 21
-612.981854
 31
0.0
  0
POLYLINE
  5
F4
100
AcDbEntity
  8
0
370
     0
390
0
  6
Continuous
 62
   174
100
AcDb2dPolyline
 66
     1
 10
0.0
 20
0.0
 30
0.0
 70
   129
  0
VERTEX
  5
F5
100
AcDbEntity
  8
0
370
     0
390
0
  6
Continuous
 62
   174
100
AcDbVertex
100
AcDb2dVertex
 10
-25.532028
 20
-611.836778
 30
0.0
  0
VERTEX
  5
F6
100
AcDbEntity
  8
0
370
     0
390
0
  6
Continuous
 62
   174
100
AcDbVertex
100
AcDb2dVertex
 10
-27.032028
 20
-611.836778
 30
0.0
  0
VERTEX
  5
F7
100
AcDbEntity
  8
0
370
     0
390
0
  6
Continuous
 62
   174
100
AcDbVertex
100
AcDb2dVertex
 10
-25.71017
 20
-612.145329
 30
0.0
  0
VERTEX
  5
F8
100
AcDbEntity
  8
0
370
     0
390
0
  6
Continuous
 62
   174
100
AcDbVertex
100
AcDb2dVertex
 10
-26.193138
 20
-612.981854
 30
0.0
  0
VERTEX
  5
F9
100
AcDbEntity
  8
0
370
     0
390
0
  6
Continuous
 62
   174
100
AcDbVertex
100
AcDb2dVertex
 10
-65.186923
 20
-612.981854
 30
0.0
  0
VERTEX
  5
FA
100
AcDbEntity
  8
0
370
     0
390
0
  6
Continuous
 62
   174
100
AcDbVertex
100
AcDb2dVertex
 10
-65.186923
 20
-632.911446
 30
0.0
  0
VERTEX
  5
FB
100
AcDbEntity
  8
0
370
     0
390
0
  6
Continuous
 62
   174
100
AcDbVertex
100
AcDb2dVertex
 10
-93.865369
 20
-632.911446
 30
0.0
  0
VERTEX
  5
FC
100
AcDbEntity
  8
0
370
     0
390
0
  6
Continuous
 62
   174
100
AcDbVertex
100
AcDb2dVertex
 10
-93.865369
 20
-612.981854
 30
0.0
  0
VERTEX
  5
FD
100
AcDbEntity
  8
0
370
     0
390
0
  6
Continuous
 62
   174
100
AcDbVertex
100
AcDb2dVertex
 10
-385.110836
 20
-612.981854
 30
0.0
  0
VERTEX
  5
FE
100
AcDbEntity
  8
0
370
     0
390
0
  6
Continuous
 62
   174
100
AcDbVertex
100
AcDb2dVertex
 10
-385.110836
 20
-702.748687
 30
0.0
  0
VERTEX
  5
FF
100
AcDbEntity
  8
0
370
     0
390
0
  6
Continuous
 62
   174
100
AcDbVertex
100
AcDb2dVertex
 10
-388.103064
 20
-702.748687
 30
0.0
  0
VERTEX
  5
100
100
AcDbEntity
  8
0
370
     0
390
0
  6
Continuous
 62
   174
100
AcDbVertex
100
AcDb2dVertex
 10
-388.103064
 20
-609.989626
 30
0.0
  0
VERTEX
  5
101
100
AcDbEntity
  8
0
370
     0
390
0
  6
Continuous
 62
   174
100
AcDbVertex
100
AcDb2dVertex
 10
-24.465574
 20
-609.989626
 30
0.0
  0
VERTEX
  5
102
100
AcDbEntity
  8
0
370
     0
390
0
  6
Continuous
 62
   174
100
AcDbVertex
100
AcDb2dVertex
 10
-25.353886
 20
-611.528227
 30
0.0
  0
VERTEX
  5
103
100
AcDbEntity
  8
0
370
     0
390
0
  6
Continuous
 62
   174
100
AcDbVertex
100
AcDb2dVertex
 10
-24.032028
 20
-611.836778
 30
0.0
  0
SEQEND
  5
104
100
AcDbEntity
  8
0
370
     0
390
0
  6
Continuous
 62
   174
  0
INSERT
  5
148
100
AcDbEntity
  8
0
370
     0
390
0
  6
Continuous
 62
   174
100
AcDbBlockReference
  2
quad box
 10
-324.385116
 20
-840.219654
 30
0.0
  0
INSERT
  5
149
100
AcDbEntity
  8
0
370
     0
390
0
  6
Continuous
 62
   174
100
AcDbBlockReference
  2
quad box
 10
-343.734492
 20
-681.332474
 30
0.0
  0
INSERT
  5
14A
100
AcDbEntity
  8
0
370
     0
390
0
  6
Continuous
 62
   174
100
AcDbBlockReference
  2
quad box
 10
-224.404916
 20
-840.219654
 30
0.0
  0
INSERT
  5
14B
100
AcDbEntity
  8
0
370
     0
390
0
  6
Continuous
 62
   174
100
AcDbBlockReference
  2
quad box
 10
-234.812152
 20
-671.885128
 30
0.0
  0
POLYLINE
  5
14C
100
AcDbEntity
  8
0
370
     0
390
0
  6
REALLY_WIDE_DOT
 62
     8
100
AcDb2dPolyline
 66
     1
 10
0.0
 20
0.0
 30
0.0
 70
   128
  0
VERTEX
  5
14D
100
AcDbEntity
  8
0
370
     0
390
0
  6
REALLY_WIDE_DOT
 62
     8
100
AcDbVertex
100
AcDb2dVertex
 10
-134.510987
 20
-620.981854
 30
0.0
  0
VERTEX
  5
14E
100
AcDbEntity
  8
0
370
     0
390
0
  6
REALLY_WIDE_DOT
 62
     8
100
AcDbVertex
100
AcDb2dVertex
 10
-97.865369
 20
-620.981854
 30
0.0
  0
VERTEX
  5
14F
100
AcDbEntity
  8
0
370
     0
390
0
  6
REALLY_WIDE_DOT
 62
     8
100
AcDbVertex
100
AcDb2dVertex
 10
-97.865369
 20
-615.231854
 30
0.0
  0
SEQEND
  5
150
100
AcDbEntity
  8
0
370
     0
390
0
  6
REALLY_WIDE_DOT
 62
     8
  0
POLYLINE
  5
151
100
AcDbEntity
  8
0
370
     0
390
0
  6
REALLY_WIDE_DOT
 62
     8
100
AcDb2dPolyline
 66
     1
 10
0.0
 20
0.0
 30
0.0
 70
   128
  0
VERTEX
  5
152
100
AcDbEntity
  8
0
370
     0
390
0
  6
REALLY_WIDE_DOT
 62
     8
100
AcDbVertex
100
AcDb2dVertex
 10
-97.865369
 20
-615.231854
 30
0.0
  0
VERTEX
  5
153
100
AcDbEntity
  8
0
370
     0
390
0
  6
REALLY_WIDE_DOT
 62
     8
100
AcDbVertex
100
AcDb2dVertex
 10
-94.615369
 20
-615.231854
 30
0.0
  0
VERTEX
  5
154
100
AcDbEntity
  8
0
370
     0
390
0
  6
REALLY_WIDE_DOT
 62
     8
100
AcDbVertex
100
AcDb2dVertex
 10
-94.615369
 20
-624.231854
 30
0.0
  0
SEQEND
  5
155
100
AcDbEntity
  8
0
370
     0
390
0
  6
REALLY_WIDE_DOT
 62
     8
  0
LINE
  5
156
100
AcDbEntity
  8
0
370
     0
390
0
  6
REALLY_WIDE_DOT
 62
     8
100
AcDbLine
 10
-94.615369
 20
-624.231854
 30
0.0
 11
-99.115369
 21
-624.231854
 31
0.0
  0
LINE
  5
157
100
AcDbEntity
  8
0
370
     0
390
0
  6
REALLY_WIDE_DOT
 62
     8
100
AcDbLine
 10
-102.365369
 20
-624.231854
 30
0.0
 11
-134.510987
 21
-624.231854
 31
0.0
  0
LINE
  5
158
100
AcDbEntity
  8
0
370
     0
390
0
  6
REALLY_WIDE_DOT
 62
     8
100
AcDbLine
 10
-99.115369
 20
-624.231854
 30
0.0
 11
-99.115369
 21
-636.231854
 31
0.0
  0
LINE
  5
159
100
AcDbEntity
  8
0
370
     0
390
0
  6
REALLY_WIDE_DOT
 62
     8
100
AcDbLine
 10
-102.365369
 20
-624.231854
 30
0.0
 11
-102.365369
 21
-639.481854
 31
0.0
  0
LINE
  5
15A
100
AcDbEntity
  8
0
370
     0
390
0
  6
REALLY_WIDE_DOT
 62
     8
100
AcDbLine
 10
-99.115369
 20
-636.231854
 30
0.0
 11
-60.715369
 21
-636.231854
 31
0.0
  0
LINE
  5
15B
100
AcDbEntity
  8
0
370
     0
390
0
  6
REALLY_WIDE_DOT
 62
     8
100
AcDbLine
 10
-60.715369
 20
-636.231854
 30
0.0
 11
-53.186923
 21
-621.481854
 31
0.0
  0
LINE
  5
15C
100
AcDbEntity
  8
0
370
     0
390
0
  6
REALLY_WIDE_DOT
 62
     8
100
AcDbLine
 10
-102.365369
 20
-639.481854
 30
0.0
 11
-58.725323
 21
-639.481854
 31
0.0
  0
LINE
  5
15D
100
AcDbEntity
  8
0
370
     0
390
0
  6
REALLY_WIDE_DOT
 62
     8
100
AcDbLine
 10
-51.196877
 20
-624.731854
 30
0.0
 11
-58.725323
 21
-639.481854
 31
0.0
  0
INSERT
  5
167
100
AcDbEntity
  8
0
370
     0
390
0
  6
Continuous
 62
     1
100
AcDbBlockReference
  2
pipe slash
 10
-28.218785
 20
-623.106854
 30
0.0
  0
LINE
  5
168
100
AcDbEntity
  8
0
370
     0
390
0
  6
REALLY_WIDE_DOT
 62
     8
100
AcDbLine
 10
-53.186923
 20
-621.481854
 30
0.0
 11
-27.280591
 21
-621.481854
 31
0.0
  0
LINE
  5
169
100
AcDbEntity
  8
0
370
     0
390
0
  6
REALLY_WIDE_DOT
 62
     8
100
AcDbLine
 10
-51.196877
 20
-624.731854
 30
0.0
 11
-29.15698
 21
-624.731854
 31
0.0
  0
LINE
  5
16A
100
AcDbEntity
  8
0
370
     0
390
0
  6
REALLY_WIDE_DOT
 62
     8
100
AcDbLine
 10
-132.510987
 20
-871.263807
 30
0.0
 11
-65.510987
 21
-871.263807
 31
0.0
  0
LINE
  5
16B
100
AcDbEntity
  8
0
370
     0
390
0
  6
REALLY_WIDE_DOT
 62
     8
100
AcDbLine
 10
-65.510987
 20
-871.263807
 30
0.0
 11
-65.510987
 21
-873.463807
 31
0.0
  0
LINE
  5
16C
100
AcDbEntity
  8
0
370
     0
390
0
  6
REALLY_WIDE_DOT
 62
     8
100
AcDbLine
 10
-132.510987
 20
-867.992657
 30
0.0
 11
-62.260987
 21
-867.992657
 31
0.0
  0
LINE
  5
16D
100
AcDbEntity
  8
0
370
     0
390
0
  6
REALLY_WIDE_DOT
 62
     8
100
AcDbLine
 10
-62.260987
 20
-873.463807
 30
0.0
 11
-62.260987
 21
-867.992657
 31
0.0
  0
LINE
  5
16E
100
AcDbEntity
  8
0
370
     0
390
0
  6
REALLY_WIDE_DOT
 62
     8
100
AcDbLine
 10
-65.510987
 20
-873.463807
 30
0.0
 11
-62.260987
 21
-873.463807
 31
0.0
  0
INSERT
  5
16F
100
AcDbEntity
  8
0
370
     0
390
0
  6
Continuous
 62
   174
100
AcDbBlockReference
  2
quad box
 10
-84.468592
 20
-845.89097
 30
0.0
  0
INSERT
  5
170
100
AcDbEntity
  8
0
370
     0
390
0
  6
Continuous
 62
   174
100
AcDbBlockReference
  2
quad box
 10
-80.55175
 20
-793.419727
 30
0.0
  0
INSERT
  5
171
100
AcDbEntity
  8
0
370
     0
390
0
  6
Continuous
 62
   174
100
AcDbBlockReference
  2
quad box
 10
-95.322401
 20
-646.186683
 30
0.0
  0
TEXT
  5
172
100
AcDbEntity
  8
hidden positions
370
     0
390
0
100
AcDbText
 10
-285.640222
 20
-663.4907
 30
0.0
 40
2.5
  1
#3 Electric
 50
90.0
  7
Vcadd_HandPrnt
 72
     1
 11
-275.003754
 21
-663.4907
 31
0.0
100
AcDbText
  0
TEXT
  5
173
100
AcDbEntity
  8
hidden positions
370
     0
390
0
100
AcDbText
 10
-328.036847
 20
-654.274333
 30
0.0
 40
2.5
  1
Electric A
  7
Vcadd_HandPrnt
 72
     1
 11
-318.41192
 21
-654.274333
 31
0.0
100
AcDbText
  0
TEXT
  5
174
100
AcDbEntity
  8
hidden positions
370
     0
390
0
100
AcDbText
 10
-328.022235
 20
-829.554452
 30
0.0
 40
2.5
  1
Electric C
  7
Vcadd_HandPrnt
 72
     1
 11
-318.41192
 21
-829.554452
 31
0.0
100
AcDbText
  0
LINE
  5
175
100
AcDbEntity
  8
0
370
     0
390
0
  6
DASHED
 62
    14
100
AcDbLine
 10
-155.110836
 20
-876.663807
 30
0.0
 11
-155.110836
 21
-744.834596
 31
0.0
  0
LINE
  5
176
100
AcDbEntity
  8
0
370
     0
390
0
  6
DASHED
 62
    14
100
AcDbLine
 10
-155.110836
 20
-612.981854
 30
0.0
 11
-155.110836
 21
-744.811065
 31
0.0
  0
INSERT
  5
177
100
AcDbEntity
  8
0
370
     0
390
0
  6
Continuous
 62
   174
100
AcDbBlockReference
  2
quad box
 10
-109.731571
 20
-750.920397
 30
0.0
  0
POLYLINE
  5
178
100
AcDbEntity
  8
hidden positions
370
     0
390
0
100
AcDb2dPolyline
 66
     1
 10
0.0
 20
0.0
 30
0.0
 70
   128
  0
VERTEX
  5
179
100
AcDbEntity
  8
hidden positions
370
     0
390
0
100
AcDbVertex
100
AcDb2dVertex
 10
-358.882222
 20
-625.870811
 30
0.0
  0
VERTEX
  5
17A
100
AcDbEntity
  8
hidden positions
370
     0
390
0
100
AcDbVertex
100
AcDb2dVertex
 10
-340.882222
 20
-625.870811
 30
0.0
  0
VERTEX
  5
17B
100
AcDbEntity
  8
hidden positions
370
     0
390
0
100
AcDbVertex
100
AcDb2dVertex
 10
-322.882222
 20
-625.870811
 30
0.0
  0
SEQEND
  5
17C
100
AcDbEntity
  8
hidden positions
370
     0
390
0
  0
POLYLINE
  5
17D
100
AcDbEntity
  8
hidden positions
370
     0
390
0
100
AcDb2dPolyline
 66
     1
 10
0.0
 20
0.0
 30
0.0
 70
   128
  0
VERTEX
  5
17E
100
AcDbEntity
  8
hidden positions
370
     0
390
0
100
AcDbVertex
100
AcDb2dVertex
 10
-358.882222
 20
-624.870811
 30
0.0
  0
VERTEX
  5
17F
100
AcDbEntity
  8
hidden positions
370
     0
390
0
100
AcDbVertex
100
AcDb2dVertex
 10
-340.882222
 20
-624.870811
 30
0.0
  0
VERTEX
  5
180
100
AcDbEntity
  8
hidden positions
370
     0
390
0
100
AcDbVertex
100
AcDb2dVertex
 10
-322.882222
 20
-624.870811
 30
0.0
  0
SEQEND
  5
181
100
AcDbEntity
  8
hidden positions
370
     0
390
0
  0
POLYLINE
  5
182
100
AcDbEntity
  8
hidden positions
370
     0
390
0
100
AcDb2dPolyline
 66
     1
 10
0.0
 20
0.0
 30
0.0
 70
   128
  0
VERTEX
  5
183
100
AcDbEntity
  8
hidden positions
370
     0
390
0
100
AcDbVertex
100
AcDb2dVertex
 10
-358.882222
 20
-626.870811
 30
0.0
  0
VERTEX
  5
184
100
AcDbEntity
  8
hidden positions
370
     0
390
0
100
AcDbVertex
100
AcDb2dVertex
 10
-340.882222
 20
-626.870811
 30
0.0
  0
VERTEX
  5
185
100
AcDbEntity
  8
hidden positions
370
     0
390
0
100
AcDbVertex
100
AcDb2dVertex
 10
-322.882222
 20
-626.870811
 30
0.0
  0
SEQEND
  5
186
100
AcDbEntity
  8
hidden positions
370
     0
390
0
  0
TEXT
  5
187
100
AcDbEntity
  8
hidden positions
370
     0
390
0
100
AcDbText
 10
-279.891508
 20
-742.115749
 30
0.0
 40
2.5
  1
Electric B
  7
Vcadd_HandPrnt
 72
     1
 11
-270.446473
 21
-742.115749
 31
0.0
100
AcDbText
  0
TEXT
  5
188
100
AcDbEntity
  8
hidden positions
370
     0
390
0
100
AcDbText
 10
-369.6821
 20
-693.656859
 30
0.0
 40
2.5
  1
#4 Electric
 50
90.0
  7
Vcadd_HandPrnt
 72
     1
 11
-359.005
 21
-693.656859
 31
0.0
100
AcDbText
  0
LINE
  5
189
100
AcDbEntity
  8
hidden positions
370
     0
390
0
  6
CENTER
100
AcDbLine
 10
-380.412423
 20
-744.822831
 30
0.0
 11
-7.400088
 21
-744.822831
 31
0.0
  0
INSERT
  5
199
100
AcDbEntity
  8
0
370
     0
390
0
  6
Continuous
 62
    14
100
AcDbBlockReference
  2
2FT_RULE
 10
-11.159372
 20
-744.95524
 30
0.0
 50
90.0
  0
INSERT
  5
19A
100
AcDbEntity
  8
0
370
     0
390
0
  6
Continuous
 62
    14
100
AcDbBlockReference
  2
2FT_RULE
 10
-11.159372
 20
-720.95524
 30
0.0
 50
90.0
  0
INSERT
  5
19B
100
AcDbEntity
  8
0
370
     0
390
0
  6
Continuous
 62
    14
100
AcDbBlockReference
  2
2FT_RULE
 10
-11.159372
 20
-696.95524
 30
0.0
 50
90.0
  0
INSERT
  5
19C
100
AcDbEntity
  8
0
370
     0
390
0
  6
Continuous
 62
    14
100
AcDbBlockReference
  2
2FT_RULE
 10
-11.159372
 20
-672.95524
 30
0.0
 50
90.0
  0
INSERT
  5
19D
100
AcDbEntity
  8
0
370
     0
390
0
  6
Continuous
 62
    14
100
AcDbBlockReference
  2
2FT_RULE
 10
-11.159372
 20
-648.95524
 30
0.0
 50
90.0
  0
INSERT
  5
19E
100
AcDbEntity
  8
0
370
     0
390
0
  6
Continuous
 62
    14
100
AcDbBlockReference
  2
2FT_RULE
 10
-11.159372
 20
-744.95524
 30
0.0
 41
-1.0
 50
90.0
  0
INSERT
  5
19F
100
AcDbEntity
  8
0
370
     0
390
0
  6
Continuous
 62
    14
100
AcDbBlockReference
  2
2FT_RULE
 10
-11.159372
 20
-768.95524
 30
0.0
 41
-1.0
 50
90.0
  0
INSERT
  5
1A0
100
AcDbEntity
  8
0
370
     0
390
0
  6
Continuous
 62
    14
100
AcDbBlockReference
  2
2FT_RULE
 10
-11.159372
 20
-792.95524
 30
0.0
 41
-1.0
 50
90.0
  0
INSERT
  5
1A1
100
AcDbEntity
  8
0
370
     0
390
0
  6
Continuous
 62
    14
100
AcDbBlockReference
  2
2FT_RULE
 10
-11.159372
 20
-816.95524
 30
0.0
 41
-1.0
 50
90.0
  0
INSERT
  5
1A2
100
AcDbEntity
  8
0
370
     0
390
0
  6
Continuous
 62
    14
100
AcDbBlockReference
  2
2FT_RULE
 10
-11.159372
 20
-840.95524
 30
0.0
 41
-1.0
 50
90.0
  0
ARC
  5
1A3
100
AcDbEntity
  8
0
370
     0
390
0
  6
REALLY_WIDE_DOT
 62
     8
100
AcDbCircle
 10
-315.291081
 20
-665.887047
 30
0.0
 40
3.090205
100
AcDbArc
 50
228.386489
 51
311.613511
  0
ARC
  5
1A4
100
AcDbEntity
  8
0
370
     0
390
0
  6
REALLY_WIDE_DOT
 62
     8
100
AcDbCircle
 10
-315.291081
 20
-665.887047
 30
0.0
 40
3.090205
100
AcDbArc
 50
18.114276
 51
161.885724
  0
ARC
  5
1A5
100
AcDbEntity
  8
0
370
     0
390
0
  6
REALLY_WIDE_DOT
 62
     8
100
AcDbCircle
 10
-315.291081
 20
-805.811684
 30
0.0
 40
3.090205
100
AcDbArc
 50
228.386489
 51
311.613511
  0
ARC
  5
1A6
100
AcDbEntity
  8
0
370
     0
390
0
  6
REALLY_WIDE_DOT
 62
     8
100
AcDbCircle
 10
-315.291081
 20
-805.811684
 30
0.0
 40
3.090205
100
AcDbArc
 50
18.114276
 51
161.885724
  0
TEXT
  5
1A7
100
AcDbEntity
  8
0
370
     0
390
0
  6
Continuous
 62
   174
100
AcDbText
 10
-21.227153
 20
-734.45524
 30
0.0
 40
3.0
  1
1'
  7
Vcadd_HandPrnt
 72
     1
 11
-20.159372
 21
-734.45524
 31
0.0
100
AcDbText
  0
TEXT
  5
1A8
100
AcDbEntity
  8
0
370
     0
390
0
  6
Continuous
 62
   174
100
AcDbText
 10
-21.769848
 20
-710.45524
 30
0.0
 40
3.0
  1
3'
  7
Vcadd_HandPrnt
 72
     1
 11
-20.159372
 21
-710.45524
 31
0.0
100
AcDbText
  0
TEXT
  5
1A9
100
AcDbEntity
  8
0
370
     0
390
0
  6
Continuous
 62
   174
100
AcDbText
 10
-21.782775
 20
-686.45524
 30
0.0
 40
3.0
  1
5'
  7
Vcadd_HandPrnt
 72
     1
 11
-20.159372
 21
-686.45524
 31
0.0
100
AcDbText
  0
TEXT
  5
1AA
100
AcDbEntity
  8
0
370
     0
390
0
  6
Continuous
 62
   174
100
AcDbText
 10
-21.773589
 20
-662.45524
 30
0.0
 40
3.0
  1
7'
  7
Vcadd_HandPrnt
 72
     1
 11
-20.159372
 21
-662.45524
 31
0.0
100
AcDbText
  0
TEXT
  5
1AB
100
AcDbEntity
  8
0
370
     0
390
0
  6
Continuous
 62
   174
100
AcDbText
 10
-21.757869
 20
-638.45524
 30
0.0
 40
3.0
  1
9'
  7
Vcadd_HandPrnt
 72
     1
 11
-20.159372
 21
-638.45524
 31
0.0
100
AcDbText
  0
TEXT
  5
1AC
100
AcDbEntity
  8
0
370
     0
390
0
  6
Continuous
 62
   174
100
AcDbText
 10
-21.227153
 20
-758.45524
 30
0.0
 40
3.0
  1
1'
  7
Vcadd_HandPrnt
 72
     1
 11
-20.159372
 21
-758.45524
 31
0.0
100
AcDbText
  0
TEXT
  5
1AD
100
AcDbEntity
  8
0
370
     0
390
0
  6
Continuous
 62
   174
100
AcDbText
 10
-21.769848
 20
-782.45524
 30
0.0
 40
3.0
  1
3'
  7
Vcadd_HandPrnt
 72
     1
 11
-20.159372
 21
-782.45524
 31
0.0
100
AcDbText
  0
TEXT
  5
1AE
100
AcDbEntity
  8
0
370
     0
390
0
  6
Continuous
 62
   174
100
AcDbText
 10
-21.782775
 20
-806.45524
 30
0.0
 40
3.0
  1
5'
  7
Vcadd_HandPrnt
 72
     1
 11
-20.159372
 21
-806.45524
 31
0.0
100
AcDbText
  0
TEXT
  5
1AF
100
AcDbEntity
  8
0
370
     0
390
0
  6
Continuous
 62
   174
100
AcDbText
 10
-21.773589
 20
-830.45524
 30
0.0
 40
3.0
  1
7'
  7
Vcadd_HandPrnt
 72
     1
 11
-20.159372
 21
-830.45524
 31
0.0
100
AcDbText
  0
TEXT
  5
1B0
100
AcDbEntity
  8
0
370
     0
390
0
  6
Continuous
 62
   174
100
AcDbText
 10
-21.757869
 20
-854.45524
 30
0.0
 40
3.0
  1
9'
  7
Vcadd_HandPrnt
 72
     1
 11
-20.159372
 21
-854.45524
 31
0.0
100
AcDbText
  0
TEXT
  5
1B1
100
AcDbEntity
  8
0
370
     0
390
0
  6
Continuous
 62
   174
100
AcDbText
 10
-22.071808
 20
-878.45524
 30
0.0
 40
3.0
  1
11'
  7
Vcadd_HandPrnt
 72
     1
 11
-20.159372
 21
-878.45524
 31
0.0
100
AcDbText
  0
INSERT
  5
1BD
100
AcDbEntity
  8
0
370
     0
390
0
  6
Continuous
 62
     3
100
AcDbBlockReference
  2
houselight
 10
-42.549292
 20
-737.452429
 30
0.0
  0
INSERT
  5
1BE
100
AcDbEntity
  8
0
370
     0
390
0
  6
Continuous
 62
     3
100
AcDbBlockReference
  2
houselight
 10
-42.549292
 20
-662.55285
 30
0.0
  0
INSERT
  5
1BF
100
AcDbEntity
  8
0
370
     0
390
0
  6
Continuous
 62
     3
100
AcDbBlockReference
  2
houselight
 10
-42.549292
 20
-821.663467
 30
0.0
  0
HATCH
  5
1C0
100
AcDbEntity
  8
Title Block
370
     0
390
0
  6
Continuous
 62
    14
100
AcDbHatch
 10
0.0
 20
0.0
 30
0.0
210
0.0
220
0.0
230
1.0
  2
DOTS
 70
     0
 71
     0
 91
        2
 92
        1
 93
        1
 72
     3
 10
12.179740379453264
 20
-985.82082477689687
 11
-11.940949293432325
 21
0.0
 40
0.42548
 50
360.0
 51
360.0
 73
     1
 97
        0
 92
        1
 93
        1
 72
     3
 10
10.925704670332914
 20
-985.82082477689687
 11
-11.940949293432244
 21
0.0
 40
0.42548
 50
360.0
 51
360.0
 73
     1
 97
        0
 75
     0
 76
     1
 52
45.0
 41
12.0
 77
     0
 78
     1
 53
45.0
 43
0.0
 44
0.0
 45
-0.2655893070136672
 46
0.795070864766154
 79
     2
 49
0.0
 49
-0.75
 98
        1
 10
0.0
 20
0.0
  0
HATCH
  5
1C1
100
AcDbEntity
  8
Title Block
370
     0
390
0
  6
Continuous
 62
    14
100
AcDbHatch
 10
0.0
 20
0.0
 30
0.0
210
0.0
220
0.0
230
1.0
  2
DOTS
 70
     0
 71
     0
 91
        2
 92
        1
 93
        1
 72
     3
 10
12.179740379453264
 20
-985.82082477689687
 11
-11.940949293432325
 21
0.0
 40
0.42548
 50
360.0
 51
360.0
 73
     1
 97
        0
 92
        1
 93
        1
 72
     3
 10
10.925704670332914
 20
-985.82082477689687
 11
-11.940949293432244
 21
0.0
 40
0.42548
 50
360.0
 51
360.0
 73
     1
 97
        0
 75
     0
 76
     1
 52
45.0
 41
12.0
 77
     0
 78
     1
 53
45.0
 43
0.0
 44
0.0
 45
-0.2655893070136672
 46
0.795070864766154
 79
     2
 49
0.0
 49
-0.75
 98
        1
 10
0.0
 20
0.0
  0
HATCH
  5
1C2
100
AcDbEntity
  8
Title Block
370
     0
390
0
  6
Continuous
 62
    14
100
AcDbHatch
 10
0.0
 20
0.0
 30
0.0
210
0.0
220
0.0
230
1.0
  2
DOTS
 70
     0
 71
     0
 91
        2
 92
        1
 93
        1
 72
     3
 10
74.645671436741679
 20
-985.82082477689687
 11
-10.424283782718589
 21
0.0
 40
0.487385
 50
360.0
 51
360.0
 73
     1
 97
        0
 92
        1
 93
        1
 72
     3
 10
75.832194874241679
 20
-985.82082477689687
 11
-10.424283782718589
 21
0.0
 40
0.487385
 50
360.0
 51
360.0
 73
     1
 97
        0
 75
     0
 76
     1
 52
45.0
 41
12.0
 77
     0
 78
     1
 53
45.0
 43
0.0
 44
0.0
 45
-0.2655893070136672
 46
0.795070864766154
 79
     2
 49
0.0
 49
-0.75
 98
        1
 10
0.0
 20
0.0
  0
INSERT
  5
1C3
100
AcDbEntity
  8
0
370
     0
390
0
  6
Continuous
 62
   174
100
AcDbBlockReference
  2
quad box
 10
-80.55175
 20
-646.186683
 30
0.0
  0
HATCH
  5
1C4
100
AcDbEntity
  8
0
370
     0
390
0
  6
Continuous
 62
    14
100
AcDbHatch
 10
0.0
 20
0.0
 30
0.0
210
0.0
220
0.0
230
1.0
  2
DOTS
 70
     0
 71
     0
 91
        1
 92
        1
 93
        6
 72
     1
 10
-132.51098731319897
 20
-867.99265653938892
 11
-132.51098731319897
 21
-871.26380742404308
 72
     1
 10
-132.51098731319897
 20
-871.26380742404308
 11
-65.510987313198967
 21
-871.26380742404308
 72
     1
 10
-65.510987313198967
 20
-871.26380742404308
 11
-65.510987313198967
 21
-873.46380742404301
 72
     1
 10
-65.510987313198967
 20
-873.46380742404301
 11
-62.260987313198967
 21
-873.46380742404301
 72
     1
 10
-62.260987313198967
 20
-873.46380742404301
 11
-62.260987313198967
 21
-867.99265653938892
 72
     1
 10
-62.260987313198967
 20
-867.99265653938892
 11
-132.51098731319897
 21
-867.99265653938892
 97
        0
 75
     0
 76
     1
 52
0.0
 41
18.0
 77
     0
 78
     1
 53
0.0
 43
0.0
 44
0.0
 45
0.5616
 46
1.125
 79
     2
 49
0.0
 49
-1.125
 98
        1
 10
0.0
 20
0.0
  0
CIRCLE
  5
1C5
100
AcDbEntity
  8
unavailable circuits
370
     0
390
0
  6
Continuous
100
AcDbCircle
 10
-77.102376
 20
-650.782666
 30
0.0
 40
1.991701
  0
TEXT
  5
1C6
100
AcDbEntity
  8
unavailable circuits
370
     0
390
0
  6
Continuous
100
AcDbText
 10
-79.03468
 20
-651.982659
 30
0.0
 40
2.0
  1
22
  7
Vcadd_HandPrnt
 72
     1
 11
-77.142375
 21
-651.982659
 31
0.0
100
AcDbText
  0
CIRCLE
  5
1C7
100
AcDbEntity
  8
unavailable circuits
370
     0
390
0
  6
Continuous
100
AcDbCircle
 10
-84.001124
 20
-650.782666
 30
0.0
 40
1.991701
  0
TEXT
  5
1C8
100
AcDbEntity
  8
unavailable circuits
370
     0
390
0
  6
Continuous
100
AcDbText
 10
-85.4789
 20
-651.982659
 30
0.0
 40
2.0
  1
21
  7
Vcadd_HandPrnt
 72
     1
 11
-84.098901
 21
-651.982659
 31
0.0
100
AcDbText
  0
CIRCLE
  5
1C9
100
AcDbEntity
  8
unavailable circuits
370
     0
390
0
  6
Continuous
100
AcDbCircle
 10
-77.102376
 20
-798.015709
 30
0.0
 40
1.991701
  0
TEXT
  5
1CA
100
AcDbEntity
  8
unavailable circuits
370
     0
390
0
  6
Continuous
100
AcDbText
 10
-78.872212
 20
-799.215703
 30
0.0
 40
2.25
  1
18
  7
Vcadd_HandPrnt
 72
     1
 11
-77.142375
 21
-799.215703
 31
0.0
100
AcDbText
  0
LINE
  5
1CB
100
AcDbEntity
  8
0
370
     0
390
0
  6
Continuous
 62
     3
100
AcDbLine
 10
-20.159372
 20
-875.45524
 30
0.0
 11
-20.24776
 21
-875.366852
 31
0.0
  0
LINE
  5
1CC
100
AcDbEntity
  8
0
370
     0
390
0
  6
Continuous
 62
     3
100
AcDbLine
 10
-20.159372
 20
-875.45524
 30
0.0
 11
-20.070984
 21
-875.366852
 31
0.0
  0
LINE
  5
1CD
100
AcDbEntity
  8
0
370
     0
390
0
  6
Continuous
 62
     3
100
AcDbLine
 10
-20.159372
 20
-878.45524
 30
0.0
 11
-20.24776
 21
-878.543628
 31
0.0
  0
LINE
  5
1CE
100
AcDbEntity
  8
0
370
     0
390
0
  6
Continuous
 62
     3
100
AcDbLine
 10
-20.159372
 20
-878.45524
 30
0.0
 11
-20.070984
 21
-878.543628
 31
0.0
  0
LINE
  5
1CF
100
AcDbEntity
  8
0
370
     0
390
0
  6
Continuous
 62
     3
100
AcDbLine
 10
-20.159372
 20
-876.95524
 30
0.0
 11
-20.070984
 21
-876.866852
 31
0.0
  0
LINE
  5
1D0
100
AcDbEntity
  8
0
370
     0
390
0
  6
Continuous
 62
     3
100
AcDbLine
 10
-20.159372
 20
-876.95524
 30
0.0
 11
-20.070984
 21
-877.043628
 31
0.0
  0
LINE
  5
1D1
100
AcDbEntity
  8
0
370
     0
390
0
  6
Continuous
 62
     7
100
AcDbLine
 10
-11.159372
 20
-876.95524
 30
0.0
 11
-17.159372
 21
-876.95524
 31
0.0
  0
LINE
  5
1D2
100
AcDbEntity
  8
0
370
     0
390
0
  6
Continuous
 62
     7
100
AcDbLine
 10
-11.159372
 20
-870.95524
 30
0.0
 11
-14.159372
 21
-870.95524
 31
0.0
  0
LINE
  5
1D3
100
AcDbEntity
  8
0
370
     0
390
0
  6
Continuous
 62
     5
100
AcDbLine
 10
-18.159372
 20
-876.990095
 30
0.0
 11
-18.159372
 21
-876.990095
 31
0.0
  0
LINE
  5
1D4
100
AcDbEntity
  8
0
370
     0
390
0
  6
Continuous
 62
     7
100
AcDbLine
 10
-11.159372
 20
-864.95524
 30
0.0
 11
-11.159372
 21
-876.95524
 31
0.0
  0
CIRCLE
  5
1D5
100
AcDbEntity
  8
unavailable circuits
370
     0
390
0
  6
Continuous
100
AcDbCircle
 10
-87.917966
 20
-850.486953
 30
0.0
 40
1.991701
  0
TEXT
  5
1D6
100
AcDbEntity
  8
unavailable circuits
370
     0
390
0
  6
Continuous
100
AcDbText
 10
-89.642806
 20
-851.686946
 30
0.0
 40
2.25
  1
15
  7
Vcadd_HandPrnt
 72
     1
 11
-88.015743
 21
-851.686946
 31
0.0
100
AcDbText
  0
CIRCLE
  5
1D7
100
AcDbEntity
  8
unavailable circuits
370
     0
390
0
  6
Continuous
100
AcDbCircle
 10
-81.019218
 20
-850.486953
 30
0.0
 40
1.991701
  0
TEXT
  5
1D8
100
AcDbEntity
  8
unavailable circuits
370
     0
390
0
  6
Continuous
100
AcDbText
 10
-82.81928
 20
-851.686946
 30
0.0
 40
2.25
  1
16
  7
Vcadd_HandPrnt
 72
     1
 11
-81.059217
 21
-851.686946
 31
0.0
100
AcDbText
  0
CIRCLE
  5
1D9
100
AcDbEntity
  8
unavailable circuits
370
     0
390
0
  6
Continuous
100
AcDbCircle
 10
-98.771775
 20
-650.782666
 30
0.0
 40
1.991701
  0
TEXT
  5
1DA
100
AcDbEntity
  8
unavailable circuits
370
     0
390
0
  6
Continuous
100
AcDbText
 10
-100.540946
 20
-651.982659
 30
0.0
 40
2.25
  1
19
  7
Vcadd_HandPrnt
 72
     1
 11
-98.869552
 21
-651.982659
 31
0.0
100
AcDbText
  0
CIRCLE
  5
1DB
100
AcDbEntity
  8
unavailable circuits
370
     0
390
0
  6
Continuous
100
AcDbCircle
 10
-91.873027
 20
-650.782666
 30
0.0
 40
1.991701
  0
TEXT
  5
1DC
100
AcDbEntity
  8
unavailable circuits
370
     0
390
0
  6
Continuous
100
AcDbText
 10
-93.955798
 20
-651.982659
 30
0.0
 40
2.0
  1
20
  7
Vcadd_HandPrnt
 72
     1
 11
-91.913026
 21
-651.982659
 31
0.0
100
AcDbText
  0
CIRCLE
  5
1DD
100
AcDbEntity
  8
unavailable circuits
370
     0
390
0
  6
Continuous
100
AcDbCircle
 10
-84.001124
 20
-798.015709
 30
0.0
 40
1.991701
  0
TEXT
  5
1DE
100
AcDbEntity
  8
unavailable circuits
370
     0
390
0
  6
Continuous
100
AcDbText
 10
-85.64737
 20
-799.215703
 30
0.0
 40
2.25
  1
17
  7
Vcadd_HandPrnt
 72
     1
 11
-84.098901
 21
-799.215703
 31
0.0
100
AcDbText
  0
CIRCLE
  5
1DF
100
AcDbEntity
  8
unavailable circuits
370
     0
390
0
  6
Continuous
100
AcDbCircle
 10
-231.362778
 20
-676.481111
 30
0.0
 40
1.991701
  0
TEXT
  5
1E0
100
AcDbEntity
  8
unavailable circuits
370
     0
390
0
  6
Continuous
100
AcDbText
 10
-232.63876
 20
-677.681104
 30
0.0
 40
2.5
  1
8
  7
Vcadd_HandPrnt
 72
     1
 11
-231.402778
 21
-677.681104
 31
0.0
100
AcDbText
  0
CIRCLE
  5
1E1
100
AcDbEntity
  8
unavailable circuits
370
     0
390
0
  6
Continuous
100
AcDbCircle
 10
-238.261526
 20
-676.481111
 30
0.0
 40
1.991701
  0
TEXT
  5
1E2
100
AcDbEntity
  8
unavailable circuits
370
     0
390
0
  6
Continuous
100
AcDbText
 10
-239.393765
 20
-677.681104
 30
0.0
 40
2.5
  1
7
  7
Vcadd_HandPrnt
 72
     1
 11
-238.359304
 21
-677.681104
 31
0.0
100
AcDbText
  0
CIRCLE
  5
1E3
100
AcDbEntity
  8
unavailable circuits
370
     0
390
0
  6
Continuous
100
AcDbCircle
 10
-103.354881
 20
-755.516379
 30
0.0
 40
1.991701
  0
TEXT
  5
1E4
100
AcDbEntity
  8
unavailable circuits
370
     0
390
0
  6
Continuous
100
AcDbText
 10
-105.136809
 20
-756.716373
 30
0.0
 40
2.25
  1
14
  7
Vcadd_HandPrnt
 72
     1
 11
-103.39488
 21
-756.716373
 31
0.0
100
AcDbText
  0
CIRCLE
  5
1E5
100
AcDbEntity
  8
unavailable circuits
370
     0
390
0
  6
Continuous
100
AcDbCircle
 10
-227.85429
 20
-844.815636
 30
0.0
 40
1.991701
  0
TEXT
  5
1E6
100
AcDbEntity
  8
unavailable circuits
370
     0
390
0
  6
Continuous
100
AcDbText
 10
-229.073855
 20
-846.01563
 30
0.0
 40
2.5
  1
5
  7
Vcadd_HandPrnt
 72
     1
 11
-227.952067
 21
-846.01563
 31
0.0
100
AcDbText
  0
CIRCLE
  5
1E7
100
AcDbEntity
  8
unavailable circuits
370
     0
390
0
  6
Continuous
100
AcDbCircle
 10
-271.06332
 20
-701.208468
 30
0.0
 40
1.991701
  0
TEXT
  5
1E8
100
AcDbEntity
  8
unavailable circuits
370
     0
390
0
  6
Continuous
100
AcDbText
 10
-273.237903
 20
-702.408462
 30
0.0
 40
2.0
  1
26
  7
Vcadd_HandPrnt
 72
     1
 11
-271.161098
 21
-702.408462
 31
0.0
100
AcDbText
  0
CIRCLE
  5
1E9
100
AcDbEntity
  8
available circuits
370
     0
390
0
  6
Continuous
100
AcDbCircle
 10
-368.19034
 20
-631.440461
 30
0.0
 40
1.991701
  0
TEXT
  5
1EA
100
AcDbEntity
  8
available circuits
370
     0
390
0
  6
Continuous
100
AcDbText
 10
-369.75589
 20
-632.640455
 30
0.0
 40
2.0
  1
31
  7
Vcadd_HandPrnt
 72
     1
 11
-368.288117
 21
-632.640455
 31
0.0
100
AcDbText
  0
CIRCLE
  5
1EB
100
AcDbEntity
  8
unavailable circuits
370
     0
390
0
  6
Continuous
100
AcDbCircle
 10
-368.19034
 20
-621.982049
 30
0.0
 40
1.991701
  0
TEXT
  5
1EC
100
AcDbEntity
  8
unavailable circuits
370
     0
390
0
  6
Continuous
100
AcDbText
 10
-370.286105
 20
-623.182043
 30
0.0
 40
2.0
  1
29
  7
Vcadd_HandPrnt
 72
     1
 11
-368.288117
 21
-623.182043
 31
0.0
100
AcDbText
  0
CIRCLE
  5
1ED
100
AcDbEntity
  8
unavailable circuits
370
     0
390
0
  6
Continuous
100
AcDbCircle
 10
-368.19034
 20
-636.169667
 30
0.0
 40
1.991701
  0
TEXT
  5
1EE
100
AcDbEntity
  8
unavailable circuits
370
     0
390
0
  6
Continuous
100
AcDbText
 10
-370.268195
 20
-637.369661
 30
0.0
 40
2.0
  1
32
  7
Vcadd_HandPrnt
 72
     1
 11
-368.288117
 21
-637.369661
 31
0.0
100
AcDbText
  0
CIRCLE
  5
1EF
100
AcDbEntity
  8
unavailable circuits
370
     0
390
0
  6
Continuous
100
AcDbCircle
 10
-368.19034
 20
-626.711255
 30
0.0
 40
1.991701
  0
TEXT
  5
1F0
100
AcDbEntity
  8
unavailable circuits
370
     0
390
0
  6
Continuous
100
AcDbText
 10
-370.418662
 20
-627.911249
 30
0.0
 40
2.0
  1
30
  7
Vcadd_HandPrnt
 72
     1
 11
-368.288117
 21
-627.911249
 31
0.0
100
AcDbText
  0
CIRCLE
  5
1F1
100
AcDbEntity
  8
unavailable circuits
370
     0
390
0
  6
Continuous
100
AcDbCircle
 10
-347.183867
 20
-685.928456
 30
0.0
 40
1.991701
  0
TEXT
  5
1F2
100
AcDbEntity
  8
unavailable circuits
370
     0
390
0
  6
Continuous
100
AcDbText
 10
-348.430301
 20
-687.12845
 30
0.0
 40
2.5
  1
3
  7
Vcadd_HandPrnt
 72
     1
 11
-347.281644
 21
-687.12845
 31
0.0
100
AcDbText
  0
CIRCLE
  5
1F3
100
AcDbEntity
  8
unavailable circuits
370
     0
390
0
  6
Continuous
100
AcDbCircle
 10
-327.83449
 20
-844.815636
 30
0.0
 40
1.991701
  0
TEXT
  5
1F4
100
AcDbEntity
  8
unavailable circuits
370
     0
390
0
  6
Continuous
100
AcDbText
 10
-328.330826
 20
-846.01563
 30
0.0
 40
2.5
  1
1
  7
Vcadd_HandPrnt
 72
     1
 11
-327.932267
 21
-846.01563
 31
0.0
100
AcDbText
  0
CIRCLE
  5
1F5
100
AcDbEntity
  8
unavailable circuits
370
     0
390
0
  6
Continuous
100
AcDbCircle
 10
-320.935742
 20
-844.815636
 30
0.0
 40
1.991701
  0
TEXT
  5
1F6
100
AcDbEntity
  8
unavailable circuits
370
     0
390
0
  6
Continuous
100
AcDbText
 10
-322.014682
 20
-846.01563
 30
0.0
 40
2.5
  1
2
  7
Vcadd_HandPrnt
 72
     1
 11
-320.975741
 21
-846.01563
 31
0.0
100
AcDbText
  0
TEXT
  5
1F7
100
AcDbEntity
  8
0
370
     0
390
0
  6
Continuous
 62
   174
100
AcDbText
 10
-82.53176
 20
-643.454632
 30
0.0
 40
1.0
  1
21-22
  7
Vcadd_HandPrnt
 72
     1
 11
-80.55175
 21
-643.454632
 31
0.0
100
AcDbText
  0
TEXT
  5
1F8
100
AcDbEntity
  8
0
370
     0
390
0
  6
Continuous
 62
   174
100
AcDbText
 10
-97.286295
 20
-643.454632
 30
0.0
 40
1.0
  1
19-20
  7
Vcadd_HandPrnt
 72
     1
 11
-95.322401
 21
-643.454632
 31
0.0
100
AcDbText
  0
TEXT
  5
1F9
100
AcDbEntity
  8
0
370
     0
390
0
  6
Continuous
 62
   174
100
AcDbText
 10
-111.540714
 20
-748.188346
 30
0.0
 40
1.0
  1
13-14
  7
Vcadd_HandPrnt
 72
     1
 11
-109.731571
 21
-748.188346
 31
0.0
100
AcDbText
  0
TEXT
  5
1FA
100
AcDbEntity
  8
0
370
     0
390
0
  6
Continuous
 62
   174
100
AcDbText
 10
-82.348647
 20
-790.687676
 30
0.0
 40
1.0
  1
17-18
  7
Vcadd_HandPrnt
 72
     1
 11
-80.55175
 21
-790.687676
 31
0.0
100
AcDbText
  0
TEXT
  5
1FB
100
AcDbEntity
  8
0
370
     0
390
0
  6
Continuous
 62
   174
100
AcDbText
 10
-86.263972
 20
-843.158919
 30
0.0
 40
1.0
  1
15-16
  7
Vcadd_HandPrnt
 72
     1
 11
-84.468592
 21
-843.158919
 31
0.0
100
AcDbText
  0
TEXT
  5
1FC
100
AcDbEntity
  8
0
370
     0
390
0
  6
Continuous
 62
   174
100
AcDbText
 10
-225.579693
 20
-837.487603
 30
0.0
 40
1.0
  1
5-6
  7
Vcadd_HandPrnt
 72
     1
 11
-224.404916
 21
-837.487603
 31
0.0
100
AcDbText
  0
TEXT
  5
1FD
100
AcDbEntity
  8
0
370
     0
390
0
  6
Continuous
 62
   174
100
AcDbText
 10
-344.923032
 20
-678.600423
 30
0.0
 40
1.0
  1
3-4
  7
Vcadd_HandPrnt
 72
     1
 11
-343.734492
 21
-678.600423
 31
0.0
100
AcDbText
  0
TEXT
  5
1FE
100
AcDbEntity
  8
0
370
     0
390
0
  6
Continuous
 62
   174
100
AcDbText
 10
-239.752964
 20
-670.939457
 30
0.0
 40
1.0
  1
7-8
  7
Vcadd_HandPrnt
 72
     1
 11
-238.576669
 21
-670.939457
 31
0.0
100
AcDbText
  0
TEXT
  5
1FF
100
AcDbEntity
  8
0
370
     0
390
0
  6
Continuous
 62
   174
100
AcDbText
 10
-325.253578
 20
-836.987603
 30
0.0
 40
1.0
  1
1-2
  7
Vcadd_HandPrnt
 72
     1
 11
-324.260116
 21
-836.987603
 31
0.0
100
AcDbText
  0
INSERT
  5
26F
100
AcDbEntity
  8
0
370
     0
390
0
  6
Continuous
 62
    94
100
AcDbBlockReference
  2
hanging position oval
 10
-316.439987
 20
-627.718001
 30
0.0
 50
90.0
  0
TEXT
  5
270
100
AcDbEntity
  8
0
370
     0
390
0
  6
Continuous
 62
   174
100
AcDbText
 10
-322.26756
 20
-627.718001
 30
0.0
 40
2.5
  1
Boom
 50
90.0
  7
Vcadd_HandPrnt
 72
     1
 11
-317.067756
 21
-627.718001
 31
0.0
100
AcDbText
  0
TEXT
  5
271
100
AcDbEntity
  8
0
370
     0
390
0
  6
Continuous
 62
   174
100
AcDbText
 10
-318.289964
 20
-627.718001
 30
0.0
 40
1.75
  1
8' Tall
 50
90.0
  7
Vcadd_HandPrnt
 72
     1
 11
-314.067756
 21
-627.718001
 31
0.0
100
AcDbText
  0
HATCH
  5
272
100
AcDbEntity
  8
0
370
     0
390
0
  6
Continuous
 62
    14
100
AcDbHatch
 10
0.0
 20
0.0
 30
0.0
210
0.0
220
0.0
230
1.0
  2
BRICK_STONE
 70
     0
 71
     0
 91
        1
 92
        1
 93
       10
 72
     1
 10
-26.193137970131687
 20
-879.65603520345292
 11
-25.710170012981877
 21
-878.81951016324172
 72
     1
 10
-25.710170012981877
 20
-878.81951016324172
 11
-27.032028034996671
 21
-878.51095920641046
 72
     1
 10
-27.032028034996671
 20
-878.51095920641046
 11
-24.032028034996671
 21
-878.51095920641046
 72
     1
 10
-24.032028034996671
 20
-878.51095920641046
 11
-25.353886057011351
 21
-878.20240824957921
 72
     1
 10
-25.353886057011351
 20
-878.20240824957921
 11
-24.465574456212636
 21
-876.66380742404306
 72
     1
 10
-24.465574456212636
 20
-876.66380742404306
 11
-385.11083591107246
 21
-876.66380742404306
 72
     1
 10
-385.11083591107246
 20
-876.66380742404306
 11
-385.11083591107246
 21
-742.11065210798859
 72
     1
 10
-385.11083591107246
 20
-742.11065210798859
 11
-388.10306369048277
 21
-742.11065210798859
 72
     1
 10
-388.10306369048277
 20
-742.11065210798859
 11
-388.10306369048277
 21
-879.65603520345292
 72
     1
 10
-388.10306369048277
 20
-879.65603520345292
 11
-26.193137970131687
 21
-879.65603520345292
 97
        0
 75
     0
 76
     1
 52
0.0
 41
6.0
 77
     0
 78
     8
 53
0.0
 43
0.0
 44
0.0
 45
0.0
 46
1.98
 79
     0
 53
90.0
 43
5.4
 44
0.0
 45
-3.0
 46
1.9800000000000004
 79
     2
 49
1.98
 49
-1.98
 53
90.0
 43
4.8
 44
0.0
 45
-3.0
 46
1.9800000000000004
 79
     2
 49
1.98
 49
-1.98
 53
0.0
 43
5.4
 44
0.33
 45
3.0
 46
1.98
 79
     2
 49
-5.4
 49
0.6
 53
0.0
 43
5.4
 44
0.66
 45
3.0
 46
1.98
 79
     2
 49
-5.4
 49
0.6
 53
0.0
 43
5.4
 44
0.99
 45
3.0
 46
1.98
 79
     2
 49
-5.4
 49
0.6
 53
0.0
 43
5.4
 44
1.32
 45
3.0
 46
1.98
 79
     2
 49
-5.4
 49
0.6
 53
0.0
 43
5.4
 44
1.65
 45
3.0
 46
1.98
 79
     2
 49
-5.4
 49
0.6
 98
        1
 10
0.0
 20
0.0
  0
INSERT
  5
273
100
AcDbEntity
  8
0
370
     0
390
0
  6
Continuous
 62
   174
100
AcDbBlockReference
  2
quad box
 10
-37.327065
 20
-635.569258
 30
0.0
  0
TEXT
  5
274
100
AcDbEntity
  8
0
370
     0
390
0
  6
Continuous
 62
   174
100
AcDbText
 10
-39.502152
 20
-632.837207
 30
0.0
 40
1.0
  1
23-24
  7
Vcadd_HandPrnt
 72
     1
 11
-37.327065
 21
-632.837207
 31
0.0
100
AcDbText
  0
TEXT
  5
275
100
AcDbEntity
  8
0
370
     0
390
0
  6
Continuous
 62
   174
100
AcDbText
 10
-32.155064
 20
-636.055976
 30
0.0
 40
1.0
  1
(In Booth)
  7
Vcadd_HandPrnt
100
AcDbText
  0
HATCH
  5
276
100
AcDbEntity
  8
0
370
     0
390
0
  6
Continuous
 62
    14
100
AcDbHatch
 10
0.0
 20
0.0
 30
0.0
210
0.0
220
0.0
230
1.0
  2
DOTS
 70
     0
 71
     0
 91
        1
 92
        1
 93
       20
 72
     1
 10
-134.51098731319897
 20
-624.23185366882251
 11
-134.51098731319897
 21
-620.98185366882251
 72
     1
 10
-134.51098731319897
 20
-620.98185366882251
 11
-97.865369312069816
 21
-620.98185366882251
 72
     1
 10
-97.865369312069816
 20
-620.98185366882251
 11
-97.865369312069816
 21
-615.23185366882251
 72
     1
 10
-97.865369312069816
 20
-615.23185366882251
 11
-94.615369312069816
 21
-615.23185366882251
 72
     1
 10
-94.615369312069816
 20
-615.23185366882251
 11
-94.615369312069816
 21
-624.23185366882251
 72
     1
 10
-94.615369312069816
 20
-624.23185366882251
 11
-99.115369312069816
 21
-624.23185366882251
 72
     1
 10
-99.115369312069816
 20
-624.23185366882251
 11
-99.115369312069816
 21
-636.23185366882251
 72
     1
 10
-99.115369312069816
 20
-636.23185366882251
 11
-60.715369312069818
 21
-636.23185366882251
 72
     1
 10
-60.715369312069818
 20
-636.23185366882251
 11
-53.186923268888933
 21
-621.48185366882251
 72
     1
 10
-53.186923268888933
 20
-621.48185366882251
 11
-27.280591214632103
 21
-621.48185366882251
 72
     1
 10
-27.280591214632103
 20
-621.48185366882251
 11
-28.040643424079995
 21
-622.79830271199125
 72
     1
 10
-28.040643424079995
 20
-622.79830271199125
 11
-26.718785402065315
 21
-623.10685366882251
 72
     1
 10
-26.718785402065315
 20
-623.10685366882251
 11
-29.718785402065315
 21
-623.10685366882251
 72
     1
 10
-29.718785402065315
 20
-623.10685366882251
 11
-28.396927380050521
 21
-623.41540462565376
 72
     1
 10
-28.396927380050521
 20
-623.41540462565376
 11
-29.156979589498427
 21
-624.73185366882251
 72
     1
 10
-29.156979589498427
 20
-624.73185366882251
 11
-51.196877278505369
 21
-624.73185366882251
 72
     1
 10
-51.196877278505369
 20
-624.73185366882251
 11
-58.725323321686311
 21
-639.48185366882251
 72
     1
 10
-58.725323321686311
 20
-639.48185366882251
 11
-102.36536931206982
 21
-639.48185366882251
 72
     1
 10
-102.36536931206982
 20
-639.48185366882251
 11
-102.36536931206982
 21
-624.23185366882251
 72
     1
 10
-102.36536931206982
 20
-624.23185366882251
 11
-134.51098731319897
 21
-624.23185366882251
 97
        0
 75
     0
 76
     1
 52
0.0
 41
18.0
 77
     0
 78
     1
 53
0.0
 43
0.0
 44
0.0
 45
0.5616
 46
1.125
 79
     2
 49
0.0
 49
-1.125
 98
        1
 10
0.0
 20
0.0
  0
HATCH
  5
277
100
AcDbEntity
  8
0
370
     0
390
0
  6
Continuous
 62
    14
100
AcDbHatch
 10
0.0
 20
0.0
 30
0.0
210
0.0
220
0.0
230
1.0
  2
DOTS
 70
     0
 71
     0
 91
        1
 92
        1
 93
        1
 72
     2
 10
-91.287486336758022
 20
-666.02318398989519
 40
3.0539701523426754
 50
0.0
 51
360.0
 73
     1
 97
        0
 75
     0
 76
     1
 52
0.0
 41
18.0
 77
     0
 78
     1
 53
0.0
 43
0.0
 44
0.0
 45
0.5616
 46
1.125
 79
     2
 49
0.0
 49
-1.125
 98
        1
 10
0.0
 20
0.0
  0
HATCH
  5
278
100
AcDbEntity
  8
0
370
     0
390
0
  6
Continuous
 62
    14
100
AcDbHatch
 10
0.0
 20
0.0
 30
0.0
210
0.0
220
0.0
230
1.0
  2
DOTS
 70
     0
 71
     0
 91
        1
 92
        1
 93
        1
 72
     2
 10
-185.62996385227615
 20
-666.02318398989519
 40
3.0539701523426688
 50
0.0
 51
360.0
 73
     1
 97
        0
 75
     0
 76
     1
 52
0.0
 41
18.0
 77
     0
 78
     1
 53
0.0
 43
0.0
 44
0.0
 45
0.5616
 46
1.125
 79
     2
 49
0.0
 49
-1.125
 98
        1
 10
0.0
 20
0.0
  0
HATCH
  5
279
100
AcDbEntity
  8
0
370
     0
390
0
  6
Continuous
 62
    14
100
AcDbHatch
 10
0.0
 20
0.0
 30
0.0
210
0.0
220
0.0
230
1.0
  2
DOTS
 70
     0
 71
     0
 91
        1
 92
        1
 93
        1
 72
     2
 10
-315.21510176034656
 20
-666.02318398989519
 40
3.0539701523426688
 50
0.0
 51
360.0
 73
     1
 97
        0
 75
     0
 76
     1
 52
0.0
 41
18.0
 77
     0
 78
     1
 53
0.0
 43
0.0
 44
0.0
 45
0.5616
 46
1.125
 79
     2
 49
0.0
 49
-1.125
 98
        1
 10
0.0
 20
0.0
  0
HATCH
  5
27A
100
AcDbEntity
  8
0
370
     0
390
0
  6
Continuous
 62
    14
100
AcDbHatch
 10
0.0
 20
0.0
 30
0.0
210
0.0
220
0.0
230
1.0
  2
DOTS
 70
     0
 71
     0
 91
        1
 92
        1
 93
        4
 72
     1
 10
-385.11083591107246
 20
-664.92626142281586
 11
-318.22813032523237
 21
-664.92626142281586
 72
     1
 10
-318.22813032523237
 20
-664.92626142281586
 11
-318.22813032523237
 21
-668.19741230747002
 72
     1
 10
-318.22813032523237
 20
-668.19741230747002
 11
-385.11083591107246
 21
-668.19741230747002
 72
     1
 10
-385.11083591107246
 20
-668.19741230747002
 11
-385.11083591107246
 21
-664.92626142281586
 97
        0
 75
     0
 76
     1
 52
0.0
 41
18.0
 77
     0
 78
     1
 53
0.0
 43
0.0
 44
0.0
 45
0.5616
 46
1.125
 79
     2
 49
0.0
 49
-1.125
 98
        1
 10
0.0
 20
0.0
  0
HATCH
  5
27B
100
AcDbEntity
  8
0
370
     0
390
0
  6
Continuous
 62
    14
100
AcDbHatch
 10
0.0
 20
0.0
 30
0.0
210
0.0
220
0.0
230
1.0
  2
DOTS
 70
     0
 71
     0
 91
        1
 92
        1
 93
        4
 72
     1
 10
-188.73743600826069
 20
-664.92626142281676
 11
-188.73743600826069
 21
-668.19741230747002
 72
     1
 10
-188.73743600826069
 20
-668.19741230747002
 11
-313.23886872502345
 21
-668.19741230747002
 72
     1
 10
-313.23886872502345
 20
-668.19741230747002
 11
-312.35403260445611
 21
-664.92626142281586
 72
     1
 10
-312.35403260445611
 20
-664.92626142281586
 11
-188.73743600826069
 21
-664.92626142281676
 97
        0
 75
     0
 76
     1
 52
0.0
 41
18.0
 77
     0
 78
     1
 53
0.0
 43
0.0
 44
0.0
 45
0.5616
 46
1.125
 79
     2
 49
0.0
 49
-1.125
 98
        1
 10
0.0
 20
0.0
  0
HATCH
  5
27C
100
AcDbEntity
  8
0
370
     0
390
0
  6
Continuous
 62
    14
100
AcDbHatch
 10
0.0
 20
0.0
 30
0.0
210
0.0
220
0.0
230
1.0
  2
DOTS
 70
     0
 71
     0
 91
        1
 92
        1
 93
        4
 72
     1
 10
-182.76889469638567
 20
-664.92626142281586
 11
-183.89479231956224
 21
-668.19741230747002
 72
     1
 10
-183.89479231956224
 20
-668.19741230747002
 11
-93.530734362878604
 21
-668.19741230747002
 72
     1
 10
-93.530734362878604
 20
-668.19741230747002
 11
-94.17888394684752
 21
-664.92626142281586
 72
     1
 10
-94.17888394684752
 20
-664.92626142281586
 11
-182.76889469638567
 21
-664.92626142281586
 97
        0
 75
     0
 76
     1
 52
0.0
 41
18.0
 77
     0
 78
     1
 53
0.0
 43
0.0
 44
0.0
 45
0.5616
 46
1.125
 79
     2
 49
0.0
 49
-1.125
 98
        1
 10
0.0
 20
0.0
  0
HATCH
  5
27D
100
AcDbEntity
  8
0
370
     0
390
0
  6
Continuous
 62
    14
100
AcDbHatch
 10
0.0
 20
0.0
 30
0.0
210
0.0
220
0.0
230
1.0
  2
DOTS
 70
     0
 71
     0
 91
        1
 92
        1
 93
        8
 72
     1
 10
-28.12762605683394
 20
-664.92626142281586
 11
-28.89378400075617
 21
-666.25328590831168
 72
     1
 10
-28.89378400075617
 20
-666.25328590831168
 11
-27.57192597874149
 21
-666.56183686514294
 72
     1
 10
-27.57192597874149
 20
-666.56183686514294
 11
-30.57192597874149
 21
-666.56183686514294
 72
     1
 10
-30.57192597874149
 20
-666.56183686514294
 11
-29.250067956726696
 21
-666.8703878219743
 72
     1
 10
-29.250067956726696
 20
-666.8703878219743
 11
-30.016225900648877
 21
-668.19741230747002
 72
     1
 10
-30.016225900648877
 20
-668.19741230747002
 11
-89.074566764834628
 21
-668.19741230747002
 72
     1
 10
-89.074566764834628
 20
-668.19741230747002
 11
-88.426417180867531
 21
-664.92626142281586
 72
     1
 10
-88.426417180867531
 20
-664.92626142281586
 11
-28.12762605683394
 21
-664.92626142281586
 97
        0
 75
     0
 76
     1
 52
0.0
 41
18.0
 77
     0
 78
     1
 53
0.0
 43
0.0
 44
0.0
 45
0.5616
 46
1.125
 79
     2
 49
0.0
 49
-1.125
 98
        1
 10
0.0
 20
0.0
  0
HATCH
  5
27E
100
AcDbEntity
  8
0
370
     0
390
0
  6
Continuous
 62
    14
100
AcDbHatch
 10
0.0
 20
0.0
 30
0.0
210
0.0
220
0.0
230
1.0
  2
DOTS
 70
     0
 71
     0
 91
        1
 92
        1
 93
        1
 72
     2
 10
-315.21510176034656
 20
-805.94782122216066
 40
3.0539701523426688
 50
0.0
 51
360.0
 73
     1
 97
        0
 75
     0
 76
     1
 52
0.0
 41
18.0
 77
     0
 78
     1
 53
0.0
 43
0.0
 44
0.0
 45
0.5616
 46
1.125
 79
     2
 49
0.0
 49
-1.125
 98
        1
 10
0.0
 20
0.0
  0
HATCH
  5
27F
100
AcDbEntity
  8
0
370
     0
390
0
  6
Continuous
 62
    14
100
AcDbHatch
 10
0.0
 20
0.0
 30
0.0
210
0.0
220
0.0
230
1.0
  2
DOTS
 70
     0
 71
     0
 91
        1
 92
        1
 93
        4
 72
     1
 10
-384.96766362240606
 20
-805.0491667144903
 11
-318.22813032523237
 21
-804.85089865508132
 72
     1
 10
-318.22813032523237
 20
-804.85089865508132
 11
-317.34329420466139
 21
-808.12204953973549
 72
     1
 10
-317.34329420466139
 20
-808.12204953973549
 11
-385.11083591107246
 21
-808.12204953973549
 72
     1
 10
-385.11083591107246
 20
-808.12204953973549
 11
-384.96766362240606
 21
-805.0491667144903
 97
        0
 75
     0
 76
     1
 52
0.0
 41
18.0
 77
     0
 78
     1
 53
0.0
 43
0.0
 44
0.0
 45
0.5616
 46
1.125
 79
     2
 49
0.0
 49
-1.125
 98
        1
 10
0.0
 20
0.0
  0
HATCH
  5
280
100
AcDbEntity
  8
0
370
     0
390
0
  6
Continuous
 62
    14
100
AcDbHatch
 10
0.0
 20
0.0
 30
0.0
210
0.0
220
0.0
230
1.0
  2
DOTS
 70
     0
 71
     0
 91
        1
 92
        1
 93
        8
 72
     1
 10
-312.35403260445611
 20
-804.85089865508132
 11
-313.23886872502345
 21
-808.12204953973549
 72
     1
 10
-313.23886872502345
 20
-808.12204953973549
 11
-30.016225900648905
 21
-808.12204953973549
 72
     1
 10
-30.016225900648905
 20
-808.12204953973549
 11
-29.250067956726721
 21
-806.79502505423977
 72
     1
 10
-29.250067956726721
 20
-806.79502505423977
 11
-30.571925978741515
 21
-806.4864740974084
 72
     1
 10
-30.571925978741515
 20
-806.4864740974084
 11
-27.571925978741401
 21
-806.4864740974084
 72
     1
 10
-27.571925978741401
 20
-806.4864740974084
 11
-28.893784000756195
 21
-806.17792314057704
 72
     1
 10
-28.893784000756195
 20
-806.17792314057704
 11
-28.127626056834025
 21
-804.85089865508132
 72
     1
 10
-28.127626056834025
 20
-804.85089865508132
 11
-312.35403260445611
 21
-804.85089865508132
 97
        0
 75
     0
 76
     1
 52
0.0
 41
18.0
 77
     0
 78
     1
 53
0.0
 43
0.0
 44
0.0
 45
0.5616
 46
1.125
 79
     2
 49
0.0
 49
-1.125
 98
        1
 10
0.0
 20
0.0
  0
CIRCLE
  5
281
100
AcDbEntity
  8
unavailable circuits
370
     0
390
0
  6
Continuous
100
AcDbCircle
 10
-259.845556
 20
-701.208468
 30
0.0
 40
1.991701
  0
TEXT
  5
282
100
AcDbEntity
  8
unavailable circuits
370
     0
390
0
  6
Continuous
100
AcDbText
 10
-261.993271
 20
-702.408462
 30
0.0
 40
2.0
  1
28
  7
Vcadd_HandPrnt
 72
     1
 11
-259.943333
 21
-702.408462
 31
0.0
100
AcDbText
  0
CIRCLE
  5
283
100
AcDbEntity
  8
unavailable circuits
370
     0
390
0
  6
Continuous
100
AcDbCircle
 10
-220.955542
 20
-844.815636
 30
0.0
 40
1.991701
  0
TEXT
  5
284
100
AcDbEntity
  8
unavailable circuits
370
     0
390
0
  6
Continuous
100
AcDbText
 10
-222.265108
 20
-846.01563
 30
0.0
 40
2.5
  1
6
  7
Vcadd_HandPrnt
 72
     1
 11
-220.995541
 21
-846.01563
 31
0.0
100
AcDbText
  0
TEXT
  5
285
100
AcDbEntity
  8
hidden positions
370
     0
390
0
100
AcDbText
 10
-202.701962
 20
-694.191571
 30
0.0
 40
2.5
  1
#1 Electric
 50
90.0
  7
Vcadd_HandPrnt
 72
     1
 11
-192.517739
 21
-694.191571
 31
0.0
100
AcDbText
  0
HATCH
  5
286
100
AcDbEntity
  8
0
370
     0
390
0
  6
Continuous
 62
    14
100
AcDbHatch
 10
0.0
 20
0.0
 30
0.0
210
0.0
220
0.0
230
1.0
  2
BRICK_STONE
 70
     0
 71
     0
 91
        1
 92
        1
 93
       15
 72
     1
 10
-25.532028034996593
 20
-611.8367776717796
 11
-27.032028034996593
 21
-611.8367776717796
 72
     1
 10
-27.032028034996593
 20
-611.8367776717796
 11
-25.710170012981798
 21
-612.14532862861086
 72
     1
 10
-25.710170012981798
 20
-612.14532862861086
 11
-26.193137970131858
 21
-612.98185366882251
 72
     1
 10
-26.193137970131858
 20
-612.98185366882251
 11
-65.18692326889024
 21
-612.98185366882251
 72
     1
 10
-65.18692326889024
 20
-612.98185366882251
 11
-65.186923268888933
 21
-632.91144613462836
 72
     1
 10
-65.186923268888933
 20
-632.91144613462836
 11
-93.865369312069816
 21
-632.91144613462836
 72
     1
 10
-93.865369312069816
 20
-632.91144613462836
 11
-93.865369312069816
 21
-612.98185366882251
 72
     1
 10
-93.865369312069816
 20
-612.98185366882251
 11
-385.11083591107246
 21
-612.98185366882251
 72
     1
 10
-385.11083591107246
 20
-612.98185366882251
 11
-385.11083591107246
 21
-702.74868705111692
 72
     1
 10
-385.11083591107246
 20
-702.74868705111692
 11
-388.10306369048277
 21
-702.74868705111692
 72
     1
 10
-388.10306369048277
 20
-702.74868705111692
 11
-388.10306369048277
 21
-609.9896258894122
 72
     1
 10
-388.10306369048277
 20
-609.9896258894122
 11
-24.465574456212664
 21
-609.9896258894122
 72
     1
 10
-24.465574456212664
 20
-609.9896258894122
 11
-25.353886057011273
 21
-611.52822671494835
 72
     1
 10
-25.353886057011273
 20
-611.52822671494835
 11
-24.032028034996479
 21
-611.8367776717796
 72
     1
 10
-24.032028034996479
 20
-611.8367776717796
 11
-25.532028034996593
 21
-611.8367776717796
 97
        0
 75
     0
 76
     1
 52
0.0
 41
6.0
 77
     0
 78
     8
 53
0.0
 43
0.0
 44
0.0
 45
0.0
 46
1.98
 79
     0
 53
90.0
 43
5.4
 44
0.0
 45
-3.0
 46
1.9800000000000004
 79
     2
 49
1.98
 49
-1.98
 53
90.0
 43
4.8
 44
0.0
 45
-3.0
 46
1.9800000000000004
 79
     2
 49
1.98
 49
-1.98
 53
0.0
 43
5.4
 44
0.33
 45
3.0
 46
1.98
 79
     2
 49
-5.4
 49
0.6
 53
0.0
 43
5.4
 44
0.66
 45
3.0
 46
1.98
 79
     2
 49
-5.4
 49
0.6
 53
0.0
 43
5.4
 44
0.99
 45
3.0
 46
1.98
 79
     2
 49
-5.4
 49
0.6
 53
0.0
 43
5.4
 44
1.32
 45
3.0
 46
1.98
 79
     2
 49
-5.4
 49
0.6
 53
0.0
 43
5.4
 44
1.65
 45
3.0
 46
1.98
 79
     2
 49
-5.4
 49
0.6
 98
        1
 10
0.0
 20
0.0
  0
LINE
  5
287
100
AcDbEntity
  8
hidden positions
370
     0
390
0
100
AcDbLine
 10
-283.172753
 20
-874.908707
 30
0.0
 11
-283.080536
 21
-715.851987
 31
0.0
  0
INSERT
  5
288
100
AcDbEntity
  8
0
370
     0
390
0
  6
Continuous
 62
    14
100
AcDbBlockReference
  2
2FT_RULE
 10
-371.110836
 20
-926.442304
 30
0.0
  0
INSERT
  5
289
100
AcDbEntity
  8
0
370
     0
390
0
  6
Continuous
 62
    14
100
AcDbBlockReference
  2
2FT_RULE
 10
-347.110836
 20
-926.442304
 30
0.0
  0
INSERT
  5
28A
100
AcDbEntity
  8
0
370
     0
390
0
  6
Continuous
 62
    14
100
AcDbBlockReference
  2
2FT_RULE
 10
-323.110836
 20
-926.442304
 30
0.0
  0
INSERT
  5
28B
100
AcDbEntity
  8
0
370
     0
390
0
  6
Continuous
 62
    14
100
AcDbBlockReference
  2
2FT_RULE
 10
-299.110836
 20
-926.442304
 30
0.0
  0
INSERT
  5
28C
100
AcDbEntity
  8
0
370
     0
390
0
  6
Continuous
 62
    14
100
AcDbBlockReference
  2
2FT_RULE
 10
-275.110836
 20
-926.442304
 30
0.0
  0
INSERT
  5
28D
100
AcDbEntity
  8
0
370
     0
390
0
  6
Continuous
 62
    14
100
AcDbBlockReference
  2
2FT_RULE
 10
-251.110836
 20
-926.442304
 30
0.0
  0
INSERT
  5
28E
100
AcDbEntity
  8
0
370
     0
390
0
  6
Continuous
 62
    14
100
AcDbBlockReference
  2
2FT_RULE
 10
-227.110836
 20
-926.442304
 30
0.0
  0
INSERT
  5
28F
100
AcDbEntity
  8
0
370
     0
390
0
  6
Continuous
 62
    14
100
AcDbBlockReference
  2
2FT_RULE
 10
-203.110836
 20
-926.442304
 30
0.0
  0
INSERT
  5
290
100
AcDbEntity
  8
0
370
     0
390
0
  6
Continuous
 62
    14
100
AcDbBlockReference
  2
2FT_RULE
 10
-179.110836
 20
-926.442304
 30
0.0
  0
INSERT
  5
291
100
AcDbEntity
  8
0
370
     0
390
0
  6
Continuous
 62
    14
100
AcDbBlockReference
  2
2FT_RULE
 10
-155.110836
 20
-926.442304
 30
0.0
  0
INSERT
  5
292
100
AcDbEntity
  8
0
370
     0
390
0
  6
Continuous
 62
    14
100
AcDbBlockReference
  2
2FT_RULE
 10
-131.110836
 20
-926.442304
 30
0.0
  0
INSERT
  5
293
100
AcDbEntity
  8
0
370
     0
390
0
  6
Continuous
 62
    14
100
AcDbBlockReference
  2
2FT_RULE
 10
-107.110836
 20
-926.442304
 30
0.0
  0
INSERT
  5
294
100
AcDbEntity
  8
0
370
     0
390
0
  6
Continuous
 62
    14
100
AcDbBlockReference
  2
2FT_RULE
 10
-83.110836
 20
-926.442304
 30
0.0
  0
INSERT
  5
295
100
AcDbEntity
  8
0
370
     0
390
0
  6
Continuous
 62
    14
100
AcDbBlockReference
  2
2FT_RULE
 10
-59.110836
 20
-926.442304
 30
0.0
  0
LINE
  5
296
100
AcDbEntity
  8
0
370
     0
390
0
  6
Continuous
 62
     3
100
AcDbLine
 10
-384.610836
 20
-917.442304
 30
0.0
 11
-384.699224
 21
-917.353915
 31
0.0
  0
LINE
  5
297
100
AcDbEntity
  8
0
370
     0
390
0
  6
Continuous
 62
     3
100
AcDbLine
 10
-384.610836
 20
-917.442304
 30
0.0
 11
-384.699224
 21
-917.530692
 31
0.0
  0
LINE
  5
298
100
AcDbEntity
  8
0
370
     0
390
0
  6
Continuous
 62
     3
100
AcDbLine
 10
-381.610836
 20
-917.442304
 30
0.0
 11
-381.522448
 21
-917.353915
 31
0.0
  0
LINE
  5
299
100
AcDbEntity
  8
0
370
     0
390
0
  6
Continuous
 62
     3
100
AcDbLine
 10
-381.610836
 20
-917.442304
 30
0.0
 11
-381.522448
 21
-917.530692
 31
0.0
  0
LINE
  5
29A
100
AcDbEntity
  8
0
370
     0
390
0
  6
Continuous
 62
     3
100
AcDbLine
 10
-383.110836
 20
-917.442304
 30
0.0
 11
-383.199224
 21
-917.530692
 31
0.0
  0
LINE
  5
29B
100
AcDbEntity
  8
0
370
     0
390
0
  6
Continuous
 62
     3
100
AcDbLine
 10
-383.110836
 20
-917.442304
 30
0.0
 11
-383.022448
 21
-917.530692
 31
0.0
  0
LINE
  5
29C
100
AcDbEntity
  8
0
370
     0
390
0
  6
Continuous
 62
     7
100
AcDbLine
 10
-371.110836
 20
-926.442304
 30
0.0
 11
-371.110836
 21
-914.442304
 31
0.0
  0
LINE
  5
29D
100
AcDbEntity
  8
0
370
     0
390
0
  6
Continuous
 62
     7
100
AcDbLine
 10
-383.110836
 20
-926.442304
 30
0.0
 11
-383.110836
 21
-920.442304
 31
0.0
  0
LINE
  5
29E
100
AcDbEntity
  8
0
370
     0
390
0
  6
Continuous
 62
     7
100
AcDbLine
 10
-377.110836
 20
-926.442304
 30
0.0
 11
-377.110836
 21
-923.442304
 31
0.0
  0
LINE
  5
29F
100
AcDbEntity
  8
0
370
     0
390
0
  6
Continuous
 62
     5
100
AcDbLine
 10
-383.075981
 20
-919.442304
 30
0.0
 11
-383.075981
 21
-919.442304
 31
0.0
  0
LINE
  5
2A0
100
AcDbEntity
  8
0
370
     0
390
0
  6
Continuous
 62
     7
100
AcDbLine
 10
-371.110836
 20
-926.442304
 30
0.0
 11
-383.110836
 21
-926.442304
 31
0.0
  0
TEXT
  5
2A1
100
AcDbEntity
  8
0
370
     0
390
0
  6
Continuous
 62
   174
100
AcDbText
 10
-168.178617
 20
-917.442304
 30
0.0
 40
3.0
  1
1'
  7
Vcadd_HandPrnt
 72
     1
 11
-167.110836
 21
-917.442304
 31
0.0
100
AcDbText
  0
TEXT
  5
2A2
100
AcDbEntity
  8
0
370
     0
390
0
  6
Continuous
 62
   174
100
AcDbText
 10
-192.721312
 20
-917.442304
 30
0.0
 40
3.0
  1
3'
  7
Vcadd_HandPrnt
 72
     1
 11
-191.110836
 21
-917.442304
 31
0.0
100
AcDbText
  0
TEXT
  5
2A3
100
AcDbEntity
  8
0
370
     0
390
0
  6
Continuous
 62
   174
100
AcDbText
 10
-216.734239
 20
-917.442304
 30
0.0
 40
3.0
  1
5'
  7
Vcadd_HandPrnt
 72
     1
 11
-215.110836
 21
-917.442304
 31
0.0
100
AcDbText
  0
TEXT
  5
2A4
100
AcDbEntity
  8
0
370
     0
390
0
  6
Continuous
 62
   174
100
AcDbText
 10
-240.725053
 20
-917.442304
 30
0.0
 40
3.0
  1
7'
  7
Vcadd_HandPrnt
 72
     1
 11
-239.110836
 21
-917.442304
 31
0.0
100
AcDbText
  0
TEXT
  5
2A5
100
AcDbEntity
  8
0
370
     0
390
0
  6
Continuous
 62
   174
100
AcDbText
 10
-264.709333
 20
-917.442304
 30
0.0
 40
3.0
  1
9'
  7
Vcadd_HandPrnt
 72
     1
 11
-263.110836
 21
-917.442304
 31
0.0
100
AcDbText
  0
TEXT
  5
2A6
100
AcDbEntity
  8
0
370
     0
390
0
  6
Continuous
 62
   174
100
AcDbText
 10
-289.023272
 20
-917.442304
 30
0.0
 40
3.0
  1
11'
  7
Vcadd_HandPrnt
 72
     1
 11
-287.110836
 21
-917.442304
 31
0.0
100
AcDbText
  0
TEXT
  5
2A7
100
AcDbEntity
  8
0
370
     0
390
0
  6
Continuous
 62
   174
100
AcDbText
 10
-313.565967
 20
-917.442304
 30
0.0
 40
3.0
  1
13'
  7
Vcadd_HandPrnt
 72
     1
 11
-311.110836
 21
-917.442304
 31
0.0
100
AcDbText
  0
TEXT
  5
2A8
100
AcDbEntity
  8
0
370
     0
390
0
  6
Continuous
 62
   174
100
AcDbText
 10
-337.578894
 20
-917.442304
 30
0.0
 40
3.0
  1
15'
  7
Vcadd_HandPrnt
 72
     1
 11
-335.110836
 21
-917.442304
 31
0.0
100
AcDbText
  0
TEXT
  5
2A9
100
AcDbEntity
  8
0
370
     0
390
0
  6
Continuous
 62
   174
100
AcDbText
 10
-361.569708
 20
-917.442304
 30
0.0
 40
3.0
  1
17'
  7
Vcadd_HandPrnt
 72
     1
 11
-359.110836
 21
-917.442304
 31
0.0
100
AcDbText
  0
TEXT
  5
2AA
100
AcDbEntity
  8
0
370
     0
390
0
  6
Continuous
 62
   174
100
AcDbText
 10
-385.553987
 20
-917.442304
 30
0.0
 40
3.0
  1
19'
  7
Vcadd_HandPrnt
 72
     1
 11
-383.110836
 21
-917.442304
 31
0.0
100
AcDbText
  0
TEXT
  5
2AB
100
AcDbEntity
  8
0
370
     0
390
0
  6
Continuous
 62
   174
100
AcDbText
 10
-144.178617
 20
-917.442304
 30
0.0
 40
3.0
  1
1'
  7
Vcadd_HandPrnt
 72
     1
 11
-143.110836
 21
-917.442304
 31
0.0
100
AcDbText
  0
TEXT
  5
2AC
100
AcDbEntity
  8
0
370
     0
390
0
  6
Continuous
 62
   174
100
AcDbText
 10
-120.721312
 20
-917.442304
 30
0.0
 40
3.0
  1
3'
  7
Vcadd_HandPrnt
 72
     1
 11
-119.110836
 21
-917.442304
 31
0.0
100
AcDbText
  0
TEXT
  5
2AD
100
AcDbEntity
  8
0
370
     0
390
0
  6
Continuous
 62
   174
100
AcDbText
 10
-96.734239
 20
-917.442304
 30
0.0
 40
3.0
  1
5'
  7
Vcadd_HandPrnt
 72
     1
 11
-95.110836
 21
-917.442304
 31
0.0
100
AcDbText
  0
TEXT
  5
2AE
100
AcDbEntity
  8
0
370
     0
390
0
  6
Continuous
 62
   174
100
AcDbText
 10
-72.725053
 20
-917.442304
 30
0.0
 40
3.0
  1
7'
  7
Vcadd_HandPrnt
 72
     1
 11
-71.110836
 21
-917.442304
 31
0.0
100
AcDbText
  0
TEXT
  5
2AF
100
AcDbEntity
  8
0
370
     0
390
0
  6
Continuous
 62
   174
100
AcDbText
 10
-48.709333
 20
-917.442304
 30
0.0
 40
3.0
  1
9'
  7
Vcadd_HandPrnt
 72
     1
 11
-47.110836
 21
-917.442304
 31
0.0
100
AcDbText
  0
TEXT
  5
2B0
100
AcDbEntity
  8
0
370
     0
390
0
  6
Continuous
 62
   174
100
AcDbText
 10
-25.023272
 20
-917.442304
 30
0.0
 40
3.0
  1
11'
  7
Vcadd_HandPrnt
 72
     1
 11
-23.110836
 21
-917.442304
 31
0.0
100
AcDbText
  0
LINE
  5
2B1
100
AcDbEntity
  8
0
370
     0
390
0
  6
Continuous
 62
     3
100
AcDbLine
 10
-24.610836
 20
-917.442304
 30
0.0
 11
-24.699224
 21
-917.353915
 31
0.0
  0
LINE
  5
2B2
100
AcDbEntity
  8
0
370
     0
390
0
  6
Continuous
 62
     3
100
AcDbLine
 10
-24.610836
 20
-917.442304
 30
0.0
 11
-24.699224
 21
-917.530692
 31
0.0
  0
LINE
  5
2B3
100
AcDbEntity
  8
0
370
     0
390
0
  6
Continuous
 62
     3
100
AcDbLine
 10
-21.610836
 20
-917.442304
 30
0.0
 11
-21.522448
 21
-917.353915
 31
0.0
  0
LINE
  5
2B4
100
AcDbEntity
  8
0
370
     0
390
0
  6
Continuous
 62
     3
100
AcDbLine
 10
-21.610836
 20
-917.442304
 30
0.0
 11
-21.522448
 21
-917.530692
 31
0.0
  0
LINE
  5
2B5
100
AcDbEntity
  8
0
370
     0
390
0
  6
Continuous
 62
     3
100
AcDbLine
 10
-23.110836
 20
-917.442304
 30
0.0
 11
-23.199224
 21
-917.530692
 31
0.0
  0
LINE
  5
2B6
100
AcDbEntity
  8
0
370
     0
390
0
  6
Continuous
 62
     3
100
AcDbLine
 10
-23.110836
 20
-917.442304
 30
0.0
 11
-23.022448
 21
-917.530692
 31
0.0
  0
LINE
  5
2B7
100
AcDbEntity
  8
0
370
     0
390
0
  6
Continuous
 62
     7
100
AcDbLine
 10
-23.110836
 20
-926.442304
 30
0.0
 11
-23.110836
 21
-920.442304
 31
0.0
  0
LINE
  5
2B8
100
AcDbEntity
  8
0
370
     0
390
0
  6
Continuous
 62
     7
100
AcDbLine
 10
-29.110836
 20
-926.442304
 30
0.0
 11
-29.110836
 21
-923.442304
 31
0.0
  0
LINE
  5
2B9
100
AcDbEntity
  8
0
370
     0
390
0
  6
Continuous
 62
     5
100
AcDbLine
 10
-23.075981
 20
-919.442304
 30
0.0
 11
-23.075981
 21
-919.442304
 31
0.0
  0
LINE
  5
2BA
100
AcDbEntity
  8
0
370
     0
390
0
  6
Continuous
 62
     7
100
AcDbLine
 10
-35.110836
 20
-926.442304
 30
0.0
 11
-23.110836
 21
-926.442304
 31
0.0
  0
TEXT
  5
2BB
100
AcDbEntity
  8
0
370
     0
390
0
  6
Continuous
 62
   174
100
AcDbText
 10
-79.128629
 20
-894.598479
 30
0.0
 40
2.5
  1
#2 FOH
 50
90.0
  7
Vcadd_HandPrnt
 72
     1
 11
-71.505763
 21
-894.598479
 31
0.0
100
AcDbText
  0
INSERT
  5
2BC
100
AcDbEntity
  8
0
370
     0
390
0
  6
Continuous
 62
    94
100
AcDbBlockReference
  2
hanging position oval
 10
-70.877995
 20
-894.598479
 30
0.0
 50
90.0
  0
TEXT
  5
2BD
100
AcDbEntity
  8
0
370
     0
390
0
  6
Continuous
 62
   174
100
AcDbText
 10
-138.293744
 20
-894.598479
 30
0.0
 40
2.5
  1
#1 FOH
 50
90.0
  7
Vcadd_HandPrnt
 72
     1
 11
-131.128308
 21
-894.598479
 31
0.0
100
AcDbText
  0
INSERT
  5
2BE
100
AcDbEntity
  8
0
370
     0
390
0
  6
Continuous
 62
    94
100
AcDbBlockReference
  2
hanging position oval
 10
-130.50054
 20
-894.598479
 30
0.0
 50
90.0
  0
TEXT
  5
2BF
100
AcDbEntity
  8
0
370
     0
390
0
  6
Continuous
 62
   174
100
AcDbText
 10
-212.488283
 20
-894.598479
 30
0.0
 40
2.5
  1
#1 Electric
 50
90.0
  7
Vcadd_HandPrnt
 72
     1
 11
-202.30406
 21
-894.598479
 31
0.0
100
AcDbText
  0
INSERT
  5
2C0
100
AcDbEntity
  8
0
370
     0
390
0
  6
Continuous
 62
    94
100
AcDbBlockReference
  2
hanging position oval
 10
-201.676291
 20
-894.598479
 30
0.0
 50
90.0
  0
TEXT
  5
2C1
100
AcDbEntity
  8
0
370
     0
390
0
  6
Continuous
 62
   174
100
AcDbText
 10
-257.097978
 20
-894.598479
 30
0.0
 40
2.5
  1
#2 Electric
 50
90.0
  7
Vcadd_HandPrnt
 72
     1
 11
-246.456324
 21
-894.598479
 31
0.0
100
AcDbText
  0
INSERT
  5
2C2
100
AcDbEntity
  8
0
370
     0
390
0
  6
Continuous
 62
    94
100
AcDbBlockReference
  2
hanging position oval
 10
-245.828556
 20
-894.598479
 30
0.0
 50
90.0
  0
TEXT
  5
2C3
100
AcDbEntity
  8
0
370
     0
390
0
  6
Continuous
 62
   174
100
AcDbText
 10
-295.443826
 20
-894.598479
 30
0.0
 40
2.5
  1
#3 Electric
 50
90.0
  7
Vcadd_HandPrnt
 72
     1
 11
-284.807357
 21
-894.598479
 31
0.0
100
AcDbText
  0
INSERT
  5
2C4
100
AcDbEntity
  8
0
370
     0
390
0
  6
Continuous
 62
    94
100
AcDbBlockReference
  2
hanging position oval
 10
-284.179589
 20
-894.598479
 30
0.0
 50
90.0
  0
INSERT
  5
2C5
100
AcDbEntity
  8
0
370
     0
390
0
  6
Continuous
 62
    94
100
AcDbBlockReference
  2
hanging position oval
 10
-329.699811
 20
-896.598479
 30
0.0
 50
90.0
  0
TEXT
  5
2C6
100
AcDbEntity
  8
0
370
     0
390
0
  6
Continuous
 62
   174
100
AcDbText
 10
-342.511263
 20
-896.598479
 30
0.0
 40
2.5
  1
#3A Electric
 50
90.0
  7
Vcadd_HandPrnt
 72
     1
 11
-330.32758
 21
-896.598479
 31
0.0
100
AcDbText
  0
TEXT
  5
2C7
100
AcDbEntity
  8
0
370
     0
390
0
  6
Continuous
 62
   174
100
AcDbText
 10
-374.807024
 20
-896.598479
 30
0.0
 40
2.5
  1
#4 Electric
 50
90.0
  7
Vcadd_HandPrnt
 72
     1
 11
-364.129925
 21
-896.598479
 31
0.0
100
AcDbText
  0
INSERT
  5
2C8
100
AcDbEntity
  8
0
370
     0
390
0
  6
Continuous
 62
    94
100
AcDbBlockReference
  2
hanging position oval
 10
-363.502156
 20
-896.598479
 30
0.0
 50
90.0
  0
TEXT
  5
2C9
100
AcDbEntity
  8
0
370
     0
390
0
  6
Continuous
 62
   174
100
AcDbText
 10
-0.189819
 20
-833.093986
 30
0.0
 40
2.5
  1
Electric C
  7
Vcadd_HandPrnt
 72
     1
 11
9.420496
 21
-833.093986
 31
0.0
100
AcDbText
  0
INSERT
  5
2CA
100
AcDbEntity
  8
0
370
     0
390
0
  6
Continuous
 62
    94
100
AcDbBlockReference
  2
hanging position oval
 10
9.420496
 20
-833.610405
 30
0.0
  0
INSERT
  5
2CB
100
AcDbEntity
  8
0
370
     0
390
0
  6
Continuous
 62
    94
100
AcDbBlockReference
  2
hanging position oval
 10
9.420496
 20
-744.833278
 30
0.0
  0
TEXT
  5
2CC
100
AcDbEntity
  8
0
370
     0
390
0
  6
Continuous
 62
   174
100
AcDbText
 10
-0.024539
 20
-744.316859
 30
0.0
 40
2.5
  1
Electric B
  7
Vcadd_HandPrnt
 72
     1
 11
9.420496
 21
-744.316859
 31
0.0
100
AcDbText
  0
TEXT
  5
2CD
100
AcDbEntity
  8
0
370
     0
390
0
  6
Continuous
 62
   174
100
AcDbText
 10
2.184734
 20
-747.316859
 30
0.0
 40
1.75
  1
8'-8"" Trim
  7
Vcadd_HandPrnt
 72
     1
 11
9.420496
 21
-747.316859
 31
0.0
100
AcDbText
  0
TEXT
  5
2CE
100
AcDbEntity
  8
0
370
     0
390
0
  6
Continuous
 62
   174
100
AcDbText
 10
2.741149
 20
-836.093986
 30
0.0
 40
1.75
  1
8'-8" Trim
  7
Vcadd_HandPrnt
 72
     1
 11
9.420496
 21
-836.093986
 31
0.0
100
AcDbText
  0
INSERT
  5
323
100
AcDbEntity
  8
0
370
     0
390
0
  6
Continuous
 62
    14
100
AcDbBlockReference
  2
centerline
 10
40.629934
 20
-744.868676
 30
0.0
 50
90.0
  0
INSERT
  5
324
100
AcDbEntity
  8
0
370
     0
390
0
  6
Continuous
 62
    94
100
AcDbBlockReference
  2
hanging position oval
 10
9.420496
 20
-647.471854
 30
0.0
  0
TEXT
  5
325
100
AcDbEntity
  8
0
370
     0
390
0
  6
Continuous
 62
   174
100
AcDbText
 10
2.184734
 20
-649.955434
 30
0.0
 40
1.75
  1
8'-8"" Trim
  7
Vcadd_HandPrnt
 72
     1
 11
9.420496
 21
-649.955434
 31
0.0
100
AcDbText
  0
TEXT
  5
326
100
AcDbEntity
  8
0
370
     0
390
0
  6
Continuous
 62
   174
100
AcDbText
 10
-0.204431
 20
-646.955434
 30
0.0
 40
2.5
  1
Electric A
  7
Vcadd_HandPrnt
 72
     1
 11
9.420496
 21
-646.955434
 31
0.0
100
AcDbText
  0
TEXT
  5
327
100
AcDbEntity
  8
0
370
     0
390
0
  6
Continuous
 62
   174
100
AcDbText
 10
-75.18511
 20
-894.598479
 30
0.0
 40
1.75
  1
8'-8" Trim
 50
90.0
  7
Vcadd_HandPrnt
 72
     1
 11
-68.505763
 21
-894.598479
 31
0.0
100
AcDbText
  0
TEXT
  5
328
100
AcDbEntity
  8
0
370
     0
390
0
  6
Continuous
 62
   174
100
AcDbText
 10
-134.807655
 20
-894.598479
 30
0.0
 40
1.75
  1
8'-8" Trim
 50
90.0
  7
Vcadd_HandPrnt
 72
     1
 11
-128.128308
 21
-894.598479
 31
0.0
100
AcDbText
  0
TEXT
  5
329
100
AcDbEntity
  8
0
370
     0
390
0
  6
Continuous
 62
   174
100
AcDbText
 10
-205.983406
 20
-894.598479
 30
0.0
 40
1.75
  1
8'-8" Trim
 50
90.0
  7
Vcadd_HandPrnt
 72
     1
 11
-199.30406
 21
-894.598479
 31
0.0
100
AcDbText
  0
TEXT
  5
32A
100
AcDbEntity
  8
0
370
     0
390
0
  6
Continuous
 62
   174
100
AcDbText
 10
-250.135671
 20
-894.598479
 30
0.0
 40
1.75
  1
8'-8" Trim
 50
90.0
  7
Vcadd_HandPrnt
 72
     1
 11
-243.456324
 21
-894.598479
 31
0.0
100
AcDbText
  0
TEXT
  5
32B
100
AcDbEntity
  8
0
370
     0
390
0
  6
Continuous
 62
   174
100
AcDbText
 10
-288.486704
 20
-894.598479
 30
0.0
 40
1.75
  1
8'-8" Trim
 50
90.0
  7
Vcadd_HandPrnt
 72
     1
 11
-281.807357
 21
-894.598479
 31
0.0
100
AcDbText
  0
TEXT
  5
32C
100
AcDbEntity
  8
0
370
     0
390
0
  6
Continuous
 62
   174
100
AcDbText
 10
-334.006926
 20
-896.598479
 30
0.0
 40
1.75
  1
8'-8" Trim
 50
90.0
  7
Vcadd_HandPrnt
 72
     1
 11
-327.32758
 21
-896.598479
 31
0.0
100
AcDbText
  0
TEXT
  5
32D
100
AcDbEntity
  8
0
370
     0
390
0
  6
Continuous
 62
   174
100
AcDbText
 10
-367.809271
 20
-896.598479
 30
0.0
 40
1.75
  1
8'-8" Trim
 50
90.0
  7
Vcadd_HandPrnt
 72
     1
 11
-361.129925
 21
-896.598479
 31
0.0
100
AcDbText
  0
CIRCLE
  5
32E
100
AcDbEntity
  8
unavailable circuits
370
     0
390
0
  6
Continuous
100
AcDbCircle
 10
-340.285118
 20
-685.928456
 30
0.0
 40
1.991701
  0
TEXT
  5
32F
100
AcDbEntity
  8
unavailable circuits
370
     0
390
0
  6
Continuous
100
AcDbText
 10
-341.574535
 20
-687.12845
 30
0.0
 40
2.5
  1
4
  7
Vcadd_HandPrnt
 72
     1
 11
-340.325118
 21
-687.12845
 31
0.0
100
AcDbText
  0
LINE
  5
330
100
AcDbEntity
  8
0
370
     0
390
0
  6
Continuous
 62
    14
100
AcDbLine
 10
-33.595014
 20
-635.569258
 30
0.0
 11
-35.327065
 21
-635.569258
 31
0.0
  0
INSERT
  5
33B
100
AcDbEntity
  8
0
370
     0
390
0
  6
Continuous
 62
    14
100
AcDbBlockReference
  2
arrwhead
 10
-33.595014
 20
-635.569258
 30
0.0
  0
CIRCLE
  5
33C
100
AcDbEntity
  8
unavailable circuits
370
     0
390
0
  6
Continuous
100
AcDbCircle
 10
-265.454438
 20
-701.208468
 30
0.0
 40
1.991701
  0
TEXT
  5
33D
100
AcDbEntity
  8
unavailable circuits
370
     0
390
0
  6
Continuous
100
AcDbText
 10
-267.440937
 20
-702.408462
 30
0.0
 40
2.0
  1
27
  7
Vcadd_HandPrnt
 72
     1
 11
-265.552215
 21
-702.408462
 31
0.0
100
AcDbText
  0
TEXT
  5
33E
100
AcDbEntity
  8
hidden positions
370
     0
390
0
100
AcDbText
 10
-202.701962
 20
-762.210986
 30
0.0
 40
2.5
  1
#1 Electric
 50
90.0
  7
Vcadd_HandPrnt
 72
     1
 11
-192.517739
 21
-762.210986
 31
0.0
100
AcDbText
  0
TEXT
  5
33F
100
AcDbEntity
  8
hidden positions
370
     0
390
0
100
AcDbText
 10
-247.311657
 20
-827.575792
 30
0.0
 40
2.5
  1
#2 Electric
 50
90.0
  7
Vcadd_HandPrnt
 72
     1
 11
-236.670004
 21
-827.575792
 31
0.0
100
AcDbText
  0
TEXT
  5
340
100
AcDbEntity
  8
hidden positions
370
     0
390
0
100
AcDbText
 10
-285.640222
 20
-763.532007
 30
0.0
 40
2.5
  1
#3 Electric
 50
90.0
  7
Vcadd_HandPrnt
 72
     1
 11
-275.003754
 21
-763.532007
 31
0.0
100
AcDbText
  0
LINE
  5
341
100
AcDbEntity
  8
hidden positions
370
     0
390
0
100
AcDbLine
 10
-381.62726
 20
-646.461406
 30
0.0
 11
-163.301163
 21
-646.505006
 31
0.0
  0
TEXT
  5
342
100
AcDbEntity
  8
hidden positions
370
     0
390
0
100
AcDbText
 10
-262.211887
 20
-663.4907
 30
0.0
 40
2.5
  1
#2 Electric
 50
90.0
  7
Vcadd_HandPrnt
 72
     1
 11
-251.570233
 21
-663.4907
 31
0.0
100
AcDbText
  0
CIRCLE
  5
343
100
AcDbEntity
  8
unavailable circuits
370
     0
390
0
  6
Continuous
100
AcDbCircle
 10
-276.672203
 20
-701.208468
 30
0.0
 40
1.991701
  0
TEXT
  5
344
100
AcDbEntity
  8
unavailable circuits
370
     0
390
0
  6
Continuous
100
AcDbText
 10
-278.728563
 20
-702.408462
 30
0.0
 40
2.0
  1
25
  7
Vcadd_HandPrnt
 72
     1
 11
-276.76998
 21
-702.408462
 31
0.0
100
AcDbText
  0
CIRCLE
  5
345
100
AcDbEntity
  8
unavailable circuits
370
     0
390
0
  6
Continuous
100
AcDbCircle
 10
-110.253629
 20
-755.516379
 30
0.0
 40
1.991701
  0
TEXT
  5
346
100
AcDbEntity
  8
unavailable circuits
370
     0
390
0
  6
Continuous
100
AcDbText
 10
-112.00265
 20
-756.716373
 30
0.0
 40
2.25
  1
13
  7
Vcadd_HandPrnt
 72
     1
 11
-110.351406
 21
-756.716373
 31
0.0
100
AcDbText
  0
LINE
  5
347
100
AcDbEntity
  8
hidden positions
370
     0
390
0
100
AcDbLine
 10
-161.110836
 20
-874.908707
 30
0.0
 11
-161.110836
 21
-617.479012
 31
0.0
  0
LINE
  5
348
100
AcDbEntity
  8
hidden positions
370
     0
390
0
100
AcDbLine
 10
-162.110836
 20
-874.908707
 30
0.0
 11
-162.110836
 21
-617.479012
 31
0.0
  0
LINE
  5
349
100
AcDbEntity
  8
hidden positions
370
     0
390
0
100
AcDbLine
 10
-160.110836
 20
-874.908707
 30
0.0
 11
-160.110836
 21
-617.479012
 31
0.0
  0
INSERT
  5
34A
100
AcDbEntity
  8
0
370
     0
390
0
  6
Continuous
 62
   174
100
AcDbBlockReference
  2
quad box
 10
-173.030667
 20
-821.722069
 30
0.0
  0
INSERT
  5
34B
100
AcDbEntity
  8
0
370
     0
390
0
  6
Continuous
 62
   174
100
AcDbBlockReference
  2
quad box
 10
-180.236666
 20
-703.521193
 30
0.0
  0
TEXT
  5
34C
100
AcDbEntity
  8
hidden positions
370
     0
390
0
100
AcDbText
 10
-175.147187
 20
-663.4907
 30
0.0
 40
2.5
  1
#1 FOH
 50
90.0
  7
Vcadd_HandPrnt
 72
     1
 11
-167.981751
 21
-663.4907
 31
0.0
100
AcDbText
  0
LINE
  5
34D
100
AcDbEntity
  8
0
370
     0
390
0
  6
REALLY_WIDE_DOT
 62
     8
100
AcDbLine
 10
-163.110836
 20
-871.332736
 30
0.0
 11
-163.110836
 21
-867.992657
 31
0.0
  0
CIRCLE
  5
34E
100
AcDbEntity
  8
unavailable circuits
370
     0
390
0
  6
Continuous
100
AcDbCircle
 10
-176.480041
 20
-826.318052
 30
0.0
 40
1.991701
  0
TEXT
  5
34F
100
AcDbEntity
  8
unavailable circuits
370
     0
390
0
  6
Continuous
100
AcDbText
 10
-177.748863
 20
-827.518045
 30
0.0
 40
2.5
  1
9
  7
Vcadd_HandPrnt
 72
     1
 11
-176.577818
 21
-827.518045
 31
0.0
100
AcDbText
  0
CIRCLE
  5
350
100
AcDbEntity
  8
unavailable circuits
370
     0
390
0
  6
Continuous
100
AcDbCircle
 10
-176.787292
 20
-708.117176
 30
0.0
 40
1.991701
  0
TEXT
  5
351
100
AcDbEntity
  8
unavailable circuits
370
     0
390
0
  6
Continuous
100
AcDbText
 10
-178.379791
 20
-709.317169
 30
0.0
 40
2.25
  1
12
  7
Vcadd_HandPrnt
 72
     1
 11
-176.827292
 21
-709.317169
 31
0.0
100
AcDbText
  0
TEXT
  5
352
100
AcDbEntity
  8
0
370
     0
390
0
  6
Continuous
 62
   174
100
AcDbText
 10
-181.850732
 20
-700.789142
 30
0.0
 40
1.0
  1
11-12
  7
Vcadd_HandPrnt
 72
     1
 11
-180.236666
 21
-700.789142
 31
0.0
100
AcDbText
  0
TEXT
  5
353
100
AcDbEntity
  8
0
370
     0
390
0
  6
Continuous
 62
   174
100
AcDbText
 10
-174.501288
 20
-818.990018
 30
0.0
 40
1.0
  1
9-10
  7
Vcadd_HandPrnt
 72
     1
 11
-173.030667
 21
-818.990018
 31
0.0
100
AcDbText
  0
CIRCLE
  5
354
100
AcDbEntity
  8
unavailable circuits
370
     0
390
0
  6
Continuous
100
AcDbCircle
 10
-169.581293
 20
-826.318052
 30
0.0
 40
1.991701
  0
TEXT
  5
355
100
AcDbEntity
  8
unavailable circuits
370
     0
390
0
  6
Continuous
100
AcDbText
 10
-171.343068
 20
-827.518045
 30
0.0
 40
2.25
  1
10
  7
Vcadd_HandPrnt
 72
     1
 11
-169.621293
 21
-827.518045
 31
0.0
100
AcDbText
  0
CIRCLE
  5
356
100
AcDbEntity
  8
unavailable circuits
370
     0
390
0
  6
Continuous
100
AcDbCircle
 10
-183.68604
 20
-708.117176
 30
0.0
 40
1.991701
  0
TEXT
  5
357
100
AcDbEntity
  8
unavailable circuits
370
     0
390
0
  6
Continuous
100
AcDbText
 10
-184.759974
 20
-709.317169
 30
0.0
 40
2.25
  1
11
  7
Vcadd_HandPrnt
 72
     1
 11
-183.783818
 21
-709.317169
 31
0.0
100
AcDbText
  0
ENDSEC
  0
SECTION
  2
OBJECTS
  0
DICTIONARY
  5
19
100
AcDbDictionary
280
     0
281
     1
  3
ACAD_GROUP
350
1A
  3
ACAD_MLINESTYLE
350
1B
  3
ACAD_LAYOUT
350
1E
  3
ACAD_PLOTSETTINGS
350
22
  3
ACAD_PLOTSTYLENAME
350
1F
  3
ACAD_WIPEOUT_VARS
350
23
  0
DICTIONARY
  5
1A
102
{ACAD_REACTORS
330
19
102
}
100
AcDbDictionary
280
     0
281
     1
  0
DICTIONARY
  5
1B
102
{ACAD_REACTORS
330
19
102
}
100
AcDbDictionary
280
     0
281
     1
  3
Standard
350
1C
  0
MLINESTYLE
  5
1C
102
{ACAD_REACTORS
330
1B
102
}
100
AcDbMlineStyle
  2
Standard
 70
     0
  3

 62
     0
 51
90.0
 52
90.0
 71
     2
 49
0.5
 62
   256
  6
ByLayer
 49
-0.5
 62
   256
  6
ByLayer
  0
ACDBDICTIONARYWDFLT
  5
1F
102
{ACAD_REACTORS
330
19
102
}
100
AcDbDictionary
281
     1
  3
Normal
350
1D
100
AcDbDictionaryWithDefault
340
1D
  0
ACDBPLACEHOLDER
  5
1D
102
{ACAD_REACTORS
330
1F
102
}
  0
LAYOUT
  5
20
102
{ACAD_REACTORS
330
1E
102
}
100
AcDbPlotSettings
  1

  2

  4

  6

 40
0.0
 41
0.0
 42
0.0
 43
0.0
 44
0.0
 45
0.0
 46
0.0
 47
0.0
 48
0.0
 49
0.0
140
0.0
141
0.0
142
1.0
143
1.0
 70
  1024
 72
     0
 73
     0
 74
     0
  7

 75
     0
147
1.0
148
0.0
149
0.0
100
AcDbLayout
  1
Model
 70
     0
 71
     0
 10
0.0
 20
0.0
 11
0.0
 21
0.0
 12
0.0
 22
0.0
 32
0.0
 14
0.0
 24
0.0
 34
0.0
 15
0.0
 25
0.0
 35
0.0
146
0.0
 13
0.0
 23
0.0
 33
0.0
 16
0.0
 26
0.0
 36
0.0
 17
0.0
 27
0.0
 37
0.0
 76
     0
330
A
331
0
345
0
346
0
  0
LAYOUT
  5
21
102
{ACAD_REACTORS
330
1E
102
}
100
AcDbPlotSettings
  1

  2

  4

  6

 40
0.0
 41
0.0
 42
0.0
 43
0.0
 44
0.0
 45
0.0
 46
0.0
 47
0.0
 48
0.0
 49
0.0
140
0.0
141
0.0
142
1.0
143
1.0
 70
     0
 72
     0
 73
     0
 74
     0
  7

 75
     0
147
1.0
148
0.0
149
0.0
100
AcDbLayout
  1
Layout1
 70
     0
 71
     0
 10
0.0
 20
0.0
 11
0.0
 21
0.0
 12
0.0
 22
0.0
 32
0.0
 14
0.0
 24
0.0
 34
0.0
 15
0.0
 25
0.0
 35
0.0
146
0.0
 13
0.0
 23
0.0
 33
0.0
 16
0.0
 26
0.0
 36
0.0
 17
0.0
 27
0.0
 37
0.0
 76
     0
330
B
331
0
345
0
346
0
  0
DICTIONARY
  5
1E
102
{ACAD_REACTORS
330
19
102
}
100
AcDbDictionary
280
     0
281
     1
  3
Layout1
350
21
  3
Model
350
20
  0
DICTIONARY
  5
22
102
{ACAD_REACTORS
330
19
102
}
100
AcDbDictionary
280
     0
281
     1
  0
WIPEOUTVARIABLES
  5
23
100
AcDbWipeoutVariables
 70
     1
  0
ENDSEC
  0
EOF
